Song name
# A B C D E F G H I J K L M N O P Q R S T U V W X Y Z

Avenged Sevenfold - So Far Away tab

This is my first ever tab so go easy on me. If you have any questions just contact me 
at: halo3nutter@hotmail.com thanks 

CHORUS
e-------------------------------------------------------------------------|
B-------------------------------------------------------------------------|
G-9--9/11/12-----------------9--9/11/12-----------------------------------|
D-------------------------------------------------------------------------|
A-7--7/9/10------------------7--7/9/10------------------------------------|
E-------------3/7-5---3---2-------------3/7-5---8---10--------------------|

VERSE  (Sleep Tight, Im not Afraid...)
e-------------------------------------------------------------------------|
B-------------------------------------------------------------------------|
G-----------------------------------------------/12v---/14v---------------|
D-14v---/10v---7b-7v---/5v---14v---/10v--/12v-----------------------------|
A-------------------------------------------------------------------------|
E-------------------------------------------------------------------------|

SOLO
e-------------------------------------------------------------------------|
B----9--12-12b13r12--8v---/10--10h12p10v---5-8-10b-----9--12-12b13r12-----|
G-/9------------------------------------------------/9--------------------|
D-------------------------------------------------------------------------|
A-------------------------------------------------------------------------|
E-------------------------------------------------------------------------|
e-------------------------------------------------------------------------|
B--8v----/15-15-17-17--19--19-20-17v----15-20b22r20v--1915h17-17b--------|
G-------------------------------------------------------------------------|
D-------------------------------------------------------------------------|
A-------------------------------------------------------------------------|
E-------------------------------------------------------------------------|

CHORUS (AFTER SOLO)
e--------------------------------------------------------------------------|
B--------------------------------------------------------------------------|
G---9/11/12-----------------9--9/11/12-------------------------------------|
D--------------------------------------------------------------------------|
A---7/9/10------------------7--7/9/10--------------------------------------|
E-------------3/7-5---3---2-------------3/7-5---8---10--12---8---10---12---|
KEY:
/ - slide
b  bend
r  raise (to sound like)
v  vibrato
h  hammer on
p  pull off
Tap to rate this tab
# A B C D E F G H I J K L M N O P Q R S T U V W X Y Z