Song name
# A B C D E F G H I J K L M N O P Q R S T U V W X Y Z

Avenged Sevenfold - Save Me tab

NOTE: Don't know what heppened with the D string on the sweep bit. This was all done by
ear so im certain it's not 100% and it was my first time figuring out a solo, also only
goes to the dual fast harmonies near the end of the solo. Also check out my YouTube 
Channel 'MattyyyM'

Key- T- Tremolo Picking
     S- Sweep Picking
E-----------------18-17-15-17-----------------------20----------13----------|
B----15-17-18-x3----------------------15-17-18-x3-----------15-----15-------|
G---------------------------------------------------------------------14----|
D------------------------------------------------------------------------15-|
A---------------------------------------------------------------------------|
D---------------------------------------------------------------------------|
      T  T  T      T  T  T             T  T  T                    S  S  S  S

E--------------------13------------------------------------------------------|
B-----------------------15---------------------------------------------------|
G--------14---15-----------14----------17-15---------------------15-17-18----|
D-----15----------------------15----15-------------------14-15-17------------|
A-17-----------------------------17------------13-15-17----------------------|
D----------------------------------------------------------------------------|
  S   S   S           S  S  S  S  S  S  S

E-------------15-17-18-17-13-----------------------13-16-13------------------|
B--15-17-18------------------15----------------15-----------15---------------|
G-------------------------------14----------14-----------------14------------|
D----------------------------------15----15-----------------------15-----15--|
A-------------------------------------17-----------------------------17------|
D----------------------------------------------------------------------------|
                           S  S  S  S  S  S  S  S  S      S  S  S  S   S

E-13--------------------------10--------------------------------------------|
B----15--------------------------11-----------------------------------------|
G-------14---------14-15----------  10---------  10-12----------------------|
D---------15----15----------------------12---- 12-----------------14-15-17--|
A------------17--------------------------  13-----------13-15-17------------|
D---------------------------------------------------------------------------|
   S  S  S S  S   S   S  S     S   S S  S  S  S  S

E--------------------15-17-18-17-15-----------------------------------------|
B-----------15-17-18----------------18-17-15--------------------------------|
G--15-17-18------------------------------------------------5-7-8-7-5--------|
D----------------------------------------------------5-7-8------------8-7-5-|
A----------------------------------------------5-7-8------------------------|
D---------------------------------------------------------------------------|

E---------------------------------------------------------------------------|
B---------------------------------------------------------------------------|
G----------------7-9-10-9-7---------------------------10-12-13-12-10--------|
D---------7-9-10------------10-9-7-----------10-12-13-----------------13-12-|
A--7-9-10---------------------------10-12-13--------------------------------|
D---------------------------------------------------------------------------|

E------------------------12-14-15--15-13--------19-15---------17-13---------|
B---------------12-14-15-----------------13-13---------17-17--------15-15---|
G------12-14-15-------------------------------------------------------------|
D--10-----------------------------------------------------------------------|
A---------------------------------------------------------------------------|
D---------------------------------------------------------------------------|

E---19-15---------------------12-14-17--------------------------------------|
B----------17-17-----11-13-16-----------------------------------------------|
G---------------------------------------------------------------------------|
D---------------------------------------------------------------------------|
A---------------------------------------------------------------------------|
D---------------------------------------------------------------------------|
Tap to rate this tab
 
# A B C D E F G H I J K L M N O P Q R S T U V W X Y Z