Song name
# A B C D E F G H I J K L M N O P Q R S T U V W X Y Z

Avenged Sevenfold - Second Heartbeat tab

I'm sure that it's 100% right.
Is exactly how Synyster plays.

|----------------------------------------13-13h15-13-11--------------------------------------|
|-/13-----------------13h15-----------16----------------13-13h15-13-11-11h13-----13----------|
|-----12~----------12--------------15----------------------------------------12-----12-------|
|---------13-12-13----------15~-13-----------------------------------------------------13p12-|
|--------------------------------------------------------------------------------------------|
|--------------------------------------------------------------------------------------------|

|-------------------------------------------------------------------------13h15-13-11----15/18-|
|--------------------13-----------------------13h15--------------15h16h18-------------13-------|
|-10--------------------12~----------------12--------------15h17-------------------------------|
|----12p10/8-/8-9-10--------13-12-13-12-13----------15~-15-------------------------------------|
|----------------------------------------------------------------------------------------------|
|----------------------------------------------------------------------------------------------|

|-16-15------------------------11h13p11----------11h13p11----------------11----------------11~-|
|-------16-13~-13br-15b-----13----------13----13----------13----------13----13----------13-----|
|-----------------------15b----------------12----------------12----12----------12----12--------|
|---------------------------------------------------------------13----------------13-----------|
|----------------------------------------------------------------------------------------------|
|----------------------------------------------------------------------------------------------|

|----------------------------------------------------------------11h13p11-----------|
|-------------------------------------11h13p11----------------13----------13--------|
|-------------------10-12----------13----------13----------12----------------12p10~-|
|-13p12h13p12----12-------12----13----------------13----13--------------------------|
|-------------13-------------13----------------------13-----------------------------|
|-----------------------------------------------------------------------------------|

|-18p16p15/13-16p15p13----------------------------------------------------------------|
|----------------------16p15p13h15h16p15p13----------16p15p13-------------------------|
|-------------------------------------------15p13p12----------15p13p12----------------|
|----------------------------------------------------------------------15p13p12h13p12-|
|-------------------------------------------------------------------------------------|
|-------------------------------------------------------------------------------------|

|-----------------------------|-------15h20p15h20p15-|--------------------------|
|-----------------------15-16-|----16----------------|--------------------------|
|--------------15-12-13-------|-17-------------------|-REPEATS-THE-LAST-PART-4X-|
|-10~-10-12-13----------------|----------------------|--------------------------|
|-----------------------------|----------------------|--------------------------|
|-----------------------------|----------------------|--------------------------|

|-------22-------------22-------------22-------------22-------------22-------------22-22b-|
|----20----20-------20----20-------20----20-------20----20-------20----20-------20--------|
|-19----------19-19----------19-19----------19-19----------19-19----------19-19-----------|
|-----------------------------------------------------------------------------------------|
|-----------------------------------------------------------------------------------------|
|-----------------------------------------------------------------------------------------|

|-------------------------------------15h18p15----------15h16h18/20~-|
|-------------------11h13h15p13----16----------16----16--------------|
|----------12h13h15-------------17----------------17-----------------|
|-13h15h17-----------------------------------------------------------|
|--------------------------------------------------------------------|
|--------------------------------------------------------------------|
Tap to rate this tab
 
# A B C D E F G H I J K L M N O P Q R S T U V W X Y Z