Song name
# A B C D E F G H I J K L M N O P Q R S T U V W X Y Z

Avenged Sevenfold - Not Ready To Die tab

Hi all, This is an amazing song by A7X and I just had to tab it. It`s quite acurate and 
easier than it would be normally, enjoy. (Oh, and just to clarify, this is only the 
rhythm guitar)

PRE-VERSE:
E|---------------------------------|
B|---------------------------------|
G|---------------------------------| x1
D|-0-------------------------------|
A|-0-------------------------------|
D|-0-000000000000000000000000000000|
     ..............................
VERSE:
E|------------------------------------------------------------------|
B|------------------------------------------------------------------|
G|------------------------------------------------------------------|
D|-0----------------6----------------6/7\605----------------3-------|
A|-0----------------6----------------6/7\605----------------3-------|
D|-0-00000000000000-6-66666666666666-6/7\605-55555555555555-3-333333|
     ..............   ..............         ..............   ......
E|----------------------------------------------------------------------|
B|----------------------------------------------------------------------|
G|-2-----1--------------------------------------------------------------|
D|--3-0---2-0--0----------------6----------------6/7\605--------3-------|
A|-----0-----0-0----------------6----------------6/7\605--------3-------|
D|-------------0-00000000000000-6-66666666666666-6/7\605-555555-3-333333|
                 ..............   ..............         ......   ......
E|------------------|---------------------------------|
B|------------------|---------------------------------|
G|------------------|---------------------------------|
D|-7--------8-------|-55555555333333337777777788888888|
A|-7--------8-------|-55555555333333337777777788888888|
D|-7-777777-8-888888|-55555555333333337777777788888888|
     ......   ......
CHORUS:
E|----------------------------|----------------------|
B|----------------------------|----------------------|
G|----------------------------|----------------------|
D|--------1-0--0--------0-1--1|--------1-0--0-----0-3|
A|--------1-0--0--------0-1--1|--------1-0--0-----0-3|
D|-000000-1-0--0--0000--0-1--1|-000000-1-0--0-----0-3|
   ......         ....          ......

I`ll tab the rest when i learnt it, because they`re the main bits of the song. A7x foREVer.
Tap to rate this tab
 
# A B C D E F G H I J K L M N O P Q R S T U V W X Y Z