Song name
# A B C D E F G H I J K L M N O P Q R S T U V W X Y Z

Avenged Sevenfold - So Far Away tab

Song: So Far Away
Artist: Avenged Sevenfold
Album: Nightmare
Year:2010

this is one of the most easiest songs of a7x.
there are more tabs of this song, i think the chords are right, but the solos and 
arpeggios are not(of the other tabs).

Em                        Em
Never feared for anything,
                           Em
Never shamed but never free
G                  D
A life to heal the broken heart
Bm               C   
with all that it could

Em                        Em
Lived a life so endlessly
                          Em
Saw beyond what others see
G                    D
I tried to heal your broken heart
Bm              C
With all that I could

C        
Will you stay?
D
Will you stay away forever?

Em            G
How do I live without the ones I love?
Am                                Em
Time still turns the pages of the book it's burned
Em               G
Place and time always on my mind
Am                                  C   D
I have so much to say but you're so far away


[on the next verse the electric guitar plays too, just a little bit but still im 
gonna make the tab]

Electric guitar part:

e|----0----0-----3-----2-----2--0---|
B|---0----0-----3-3---3-3---3---1---|
G|--0----0-----0-----2-----4----0---|
D|----------------------------------|
A|----------------------------------|
E|----------------------------------|


Em                            Em
Plans of what our futures hold
                           Em
Foolish lies of growing old
G                  D
It seems we're so invincible
Bm                  C
The truth is so cold

Em                          Em
A final song, a last request
                              Em
A perfect chapter laid to rest
G              D             Bm          C
Now and then I try to find a place in my mind

C
Where you can stay
D
You can stay awake forever

Em                      G
How do I live without the ones I love?
Am                                Em        D
Time still turns the pages of the book it's burned
Em             G
Place and time always on my mind
Am                                  C    D
I have so much to say but you're so far away

E                C
Sleep tight, I'm not afraid
Am                        Em
The ones that we love are here with me
E          C
Lay away a place for me
D                                        C
'Cause as soon as I'm done I'll be on my way
   D
To live on eternally

Acoustic part on solo: E - C - Am - Em
                       E - C - D - C - D


Solo:

e|---------------------------------------------------------------|
B|-----9--12-12b--8v-----/10--10--10h12--10----------------------|
G|--/9---------------------------------------/9--12--14-14b--12--|
D|---------------------------------------------------------------|
A|---------------------------------------------------------------|
E|---------------------------------------------------------------|

e|---------------------/10-10-12-12-14-14-15-12--10-15b-14-10-12bvvvv--|
B|-----9--12-12b--8v---------------------------------------------------|
G|--/9-----------------------------------------------------------------|
D|---------------------------------------------------------------------|
A|---------------------------------------------------------------------|
E|---------------------------------------------------------------------|


Em            G
How do I live without the ones I love?
Am                                Em        D
Time still turns the pages of the book it's burned
Em             G
Place and time always on my mind
Am                                         C       D
And the light you left remains but it's so hard to stay
Am                                       C   D      Em
When I have so much to say and you're so far away...

Arpeggio:

e|--0------0-----2---3------------------------------------------------------|
B|----0------0-----3---3---1-------1------3---3----------------------------0|
G|------0--------------------2-------2--4---2----0-------0---------2--------|
D|--2-----2------0-------------2---------------------2-----2---3/4---4---4--|
A|-------------------------0-----0-----------------2---2---------------0----|
E|--------------------------------------3---2----0--------------------------|

e|----0-3------------|
B|--0----------------|
G|--------------0----|  X2
D|--------2---2---2--|
A|--3-------3--------|
E|-------------------|

Acoustic part (when matt does not sing): Em - D - Am - G
                                         D - Em - D - C  
                                         Em - D - Am - G
                                         D - Em - D - C
                                         Em - D - C

Solo 2:

e|------------------------------------------------------|
B|--/17-17-19-20-13v---12-10--12p10/8-------------------|
G|------------------------------------/11--16--16/9/12--|
D|------------------------------------------------------|
A|------------------------------------------------------|
E|------------------------------------------------------|

e|-------------------------------------------------------------------------|
B|--/17-17-19-20-13v---12-10--12p10/8--------------------------------------|
G|------------------------------------/11--16--16/9/12--/12-11-16-16/9/12--|
D|-------------------------------------------------------------------------|
A|-------------------------------------------------------------------------|
E|-------------------------------------------------------------------------|

e|------------------------------------------------------|
B|--/17-17-19-20-13v---12-10--12p10/8-------------------|
G|------------------------------------/11--16--16/9/12--|
D|------------------------------------------------------|
A|------------------------------------------------------|
E|------------------------------------------------------|

e|------------------------------------------------------|
B|--/17-17-19-20-13---15-17-15-13-15-12--13-12-12p10/8--|
G|------------------------------------------------------|
D|------------------------------------------------------|
A|------------------------------------------------------|
E|------------------------------------------------------|

e|-------------------------------------------------------------|
B|-------------------------------------------------------------|
G|---/11--16--16/9/12---/12-11-16-16/9/12---/12-11-16-16/9/12--|
D|-------------------------------------------------------------|
A|-------------------------------------------------------------|
E|-------------------------------------------------------------|

e|----------------------------------------|
B|----------------------------------------|
G|--/12-11-16-16/9/12--/12--11--7-7/9vvv--|
D|----------------------------------------|
A|----------------------------------------|
E|----------------------------------------|

solo lyrics & acoustic part

Em
I love you
D
You were ready
Am          G          D     Em D Am
The pain is strong and urges riiiiise
Em
But I see you
D
when he lets me
Am           G          D        Em D C
Your pain is gone, your hands untiiiiiied
Em D   C    Em
So far away
      D         C
And I needed to know
Em D   C    Em
So far away
      D                       C
And I need you to need you to know

Tap to rate this tab
 
# A B C D E F G H I J K L M N O P Q R S T U V W X Y Z