Song name
# A B C D E F G H I J K L M N O P Q R S T U V W X Y Z

Avenged Sevenfold - I Wont See You Tonight Part 1 tab

e|---------------------------------------------------------------|
B|---------------------------------------------------------------|
G|/12~--14b15r14b15r14--8h10~--/14b15r14b15r14--8h10~---10b11~---|
D|---------------------------------------------------------------|
A|---------------------------------------------------------------|
D|---------------------------------------------------------------|

e|---------------------------------------------------------------|
B|---------------------------------------------------------------|
G|-----------------------------------------15p14b15r14b15r14-----|
D|13p12p10~-/12-10-12-8~----/10-12-12/15~------------------------|
A|---------------------------------------------------------------|
D|---------------------------------------------------------------|

e|---------------------------------------------------------------|
B|-----------------11/13~----------------------------------------|
G|10h12~--12-14-15---------15p14-14b15r14b15r14-8h10~------------|
D|---------------------------------------------------------------|
A|---------------------------------------------------------------|
D|---------------------------------------------------------------|

e|---------------------------------------------------------------|
B|---------------------------------------------------------------|
G|10h11~-/12-12b14r12~-------------------------------------------|
D|---------------------------------------------------------------|
A|---------------------------------------------------------------|
D|---------------------------------------------------------------|
Please comment and rate!

| /  slide up
| \  slide down
| h  hammer-on
| p  pull-off
| ~  vibrato
| +  harmonic
| x  Mute note
Tap to rate this tab
# A B C D E F G H I J K L M N O P Q R S T U V W X Y Z