Song name
# A B C D E F G H I J K L M N O P Q R S T U V W X Y Z

Avenged Sevenfold - Victim tab

E||--/10b(11)----10pbr----11--------------11-----|
B||--------------------------11--8--11b(13--13r)-|
G||----------------------------------------------|
D||----------------------------------------------|
A||----------------------------------------------|
E||----------------------------------------------|

|-------------------------------------------------------------|
|-8-11b(13)r(11)----------------------------------------------|
|-----------------10b(12)r(10)b(12)---8----8(~)--10-8-10b(12)-|
|---------------------------------------10--------------------|
|-------------------------------------------------------------|
|-------------------------------------------------------------|


E||----------------------------------------18---------------------|
B||-------------/11--11--9-9/16(~)---18b(20--20r(18))---16--------|
G||-8----8(~)----------------------------------------------15(~)--|
D||---10----------------------------------------------------------|
A||---------------------------------------------------------------|
E||---------------------------------------------------------------|

|---15--------15-----------------------------------|
|------16-15-----15-16-15----15\---8-11-8--------8-|
|-------------------------15--------------10---8---|
|--------------------------------------------8-----|
|--------------------------------------------------|
|--------------------------------------------------|


E||------------------------------------------------|
B||------------------------------------------------|
G||-8-7-8-7---------------------\7--8-7-8b(10)(~)--|
D||---------8--------------------------------------|
A||------------8-6-8/10(~)-------------------------|
E||------------------------------------------------|

|------------------------------------------------15-18b(20)---15----------|
|---------------------------------------------16-----------------16-------|
|------15-----17-----19--19b(21)r(19)-17---17-----------------------15-17-|
|--/12----/15----/17------------------------------------------------------|
|-------------------------------------------------------------------------|
|-------------------------------------------------------------------------|


E||---------15-18b(20)---18-16-15-16b(18)-16--18---11--13--15--16-15----||
B||------16-------------------------------------------------------------||
G||---17----------------------------------------------------------------||
D||---------------------------------------------------------------------||
A||---------------------------------------------------------------------||
E||---------------------------------------------------------------------||
Tap to rate this tab
# A B C D E F G H I J K L M N O P Q R S T U V W X Y Z