Song name
# A B C D E F G H I J K L M N O P Q R S T U V W X Y Z

Avenged Sevenfold - So Far Away tab

these are the solos for the song: I've also added the apreggio part in this song if
anyone is too confused about the apreggio part on the other versions of the tab. Let me know
if I made any mistakes on the solos... Thanks, also Practice the 2nd solo once you can 
memorize the tabs for it. and listen to the song when listening to the solos. Enjoy!

Tuning:E-A-D-G-B-e

First Solo
e|-------------------------------------------------------------------------|
B|-------------------------------------------------------------------------|
G|----------------13----16-16b\12------9/14----14h16p14~---5/9~------12--12|
D|-----12/14---------------------------------------------------------------|
A|-------------------------------------------------------------------------|
E|-------------------------------------------------------------------------|

e|--------------------------------------------------------------------14--|
B|------------------------------------------------------15-15--17-17------|
G|--12/14b---12b---------13---16b/12-------------7/14---------------------|
D|-----------------9/14---------------------------------------------------|
A|------------------------------------------------------------------------|
E|------------------------------------------------------------------------|

e|---14---15---------------------15b--14-----------------------------------|
B|-----------17~----1717\-10/15-----------15----17b------------------------|
G|-------------------------------------------------------------------------|
D|-------------------------------------------------------------------------|
A|-------------------------------------------------------------------------|
E|-------------------------------------------------------------------------|


Apreggio Part
e|--0-----------2----3--------------------------------------------------|
B|----0----0-------3---3--1-------1------------------------------------0|
G|------2----0--------------2-------2--4----2-----0-------0-----2-------|
D|--------------0-------------2----------0----0-------2-----2/4---4--4--|
A|------------------------0-----0-------------------2---2-----0-----0---|
E|--0----------------------------------3----2-----0---------------------|

e|----------------------|
B|-0--------------------|
G|-----0-------0-0-0----|
D|---2---2--2--2---2----|
A|-3--------3-----------|
E|----------------------|

Second Solo
e|--------------14---15-15-------------------------------------------------|
B|-10/17~---17-------------------------------------------------------------|
G|----------------------------17~--16---14--12-----11----/16~---16\9--9/12-|
D|-------------------------------------------------------------------------|
A|-------------------------------------------------------------------------|
E|-------------------------------------------------------------------------|

e|---------14--15----------------------------------------------------------|
B|-10/17-------------------------------------------------------------------|
G|------------------17----17-16---14---16p14\12--9/11--/16--16\9---9/12----|
D|-------------------------------------------------------------------------|
A|-------------------------------------------------------------------------|
E|-------------------------------------------------------------------------|

e|------------------------------------------14---15------------------------|
B|-------------------------------8/17----17--------------------------------|
G|-9/12----11/16---16\9---9/12----------------------17-16br--14----16p14\12|
D|-------------------------------------------------------------------------|
A|-------------------------------------------------------------------------|
E|-------------------------------------------------------------------------|

e|---------------------------------14--15----------------------------------|
B|---------------------10/17---17-----------------15-17-15----15-------15--|
G|--11/16--16\9---9/12---------------------17--17----------17----16--16--14|
D|-------------------------------------------------------------------------|
A|-------------------------------------------------------------------------|
E|-------------------------------------------------------------------------|

e|---------------------------------------------------------------------|
B|---------------------------------------------------------------------|
G|--16p14\12~-----11----/16---16\9--9--/12--12---12b-11/16--16\9--9/12-|
D|---------------------------------------------------------------------|
A|---------------------------------------------------------------------|
E|---------------------------------------------------------------------|

e|-------------10---------------------|
B|------------------------------------|
G|--9/12--11b----12--12--12b-(fdbk.)--|
D|------------------------------------|
A|------------------------------------|
E|------------------------------------|

************************************

| /   slide up
| \   slide down
| h   hammer-on
| p   pull-off
| ~   vibrato
| +   harmonic
| x   Mute note
| b   Bend
| pb  Pre-bend
| br  Bend release
| pbr Pre-bend release
| brb Bend release bend

************************************
Tap to rate this tab
# A B C D E F G H I J K L M N O P Q R S T U V W X Y Z