Song name
# A B C D E F G H I J K L M N O P Q R S T U V W X Y Z

Avenged Sevenfold - Nightmare tab

  Guitar Solo
Synyster Gates
E||-/17~~~------(17)\----------------------14h15h|
B||----------------------------14h15h16h17-------|
G||-------------------14h15h16-------------------|
D||----------------------------------------------|
A||----------------------------------------------|
D||----------------------------------------------|

rhythm
E||----------------------------------------------|
B||----------------------------------------------|
G||----------------------------------------------|
D||----------------------------------------------|
A||---0-x-x-------3p------0-----x--------0-------|
D||---0-x-x-0-0---3p------0-----x--------0-------|

Synyster Gates
E||-16~~~------(16)\----------------------12h14--|
B||---------------------------13h14h15h16--------|
G||------------------13h14h15--------------------|
D||----------------------------------------------|
A||----------------------------------------------|
D||----------------------------------------------|

rhythm
E||----------------------------------------------|
B||----------------------------------------------|
G||----------------------------------------------|
D||----------------------------------------------|
A||--x-----3p0---x------------/3-----------------|
D||--x-0-0-3p0---x-------0--0-/3-----------------|

Synyster Gates
E||-15~~~------(15)\-x-15BU(17)(15)--|
B||----------------------------------|
G||----------------------------------|
D||----------------------------------|
A||----------------------------------|
D||----------------------------------|

rhythm
E||---------------------------------------|
B||---------------------------------------|
G||---------------------------------------|
D||---------------------------------------|
A||--0-x-x-------3p-------------0--x---0--|
D||--0-x-x-0-0---3p-------------0--x---0--|

Synyster Gates 
E||-13~~~----/17p15p13----------------13h17p13-------------|
B||--------------------15----------15----------15----------|
G||-----------------------14----14----------------14-------|
D||--------------------------15----------------------15\8--|
A||--------------------------------------------------------|
D||--------------------------------------------------------|

rhythm
E||--------------------------------------------------------|
B||--------------------------------------------------------|
G||--------------------------------------------------------|
D||--------------------------------------------------------|
A||--x-----3p--0--------x----------------/3----------------|
D||--x-0-0-3p--0--------x-----0--0-------/3----------------|

Synyster Gates
E||---------------------------|-\10---13---/17-18-----17--|
B||---------------------------|---x----x-----x--x------x--|
G||-\7---10---/14---15---14---|--\7---10---/14-15-----14--|
D||--x----x-----x----x----x---|---------------------------|
A||-\5----8---/12---13---12---|---------------------------|
D||---------------------------|---------------------------|

rhythm
E||---------------------------|---------------------------|
B||---------------------------|---------------------------|
G||---------------------------|---------------------------|
D||---------------------------|---------------------------|
A||--0-x----x--------3p0--x-0-|---x------3p--0--x-----/3--|
D||--0-x----x---0-0--3p0--x-0-|---x-0--0-3p--0--x-0-0-/3--|

Synyster Gates
E||-15~~---/18\15---------------|---------------------------------||
B||---------------15~~---/20~~--|-\17-18----20-20BU(22)(20)~~~----||
G||-----------------------------|---------------------------------||
D||-----------------------------|---------------------------------||
A||-----------------------------|---------------------------------||
D||-----------------------------|---------------------------------||

rhythm
E||-----------------------------|-------------------------------||
B||-----------------------------|-------------------------------||
G||-----------------------------|-------------------------------||
D||--8-------8--8--9-------9--9-|--10----10-10-11---------11-11-||
A||--8-------8--8-10------10-10-|--10----10-10-12---------12-12-||
D||--8-------8--8--9-------9--9-|--10----10-10-11---------11-11-||


Guitar Duet

Syn
     TR-----------------------------------
E||-/13-----------------17-----------------|
B||----------------------------------------|
G||----------------------------------------|
D||----------------------------------------|
A||----------------------------------------|
D||----------------------------------------|

Zachy
     TR-----------------------------------
E||-/10-----------------13-----------------|
B||----------------------------------------|
G||----------------------------------------|
D||----------------------------------------|
A||----------------------------------------|
D||----------------------------------------|

Syn
     TR-----------------------------------
E||-/12-----------------18-----------------|
B||----------------------------------------|
G||----------------------------------------|
D||----------------------------------------|
A||----------------------------------------|
D||----------------------------------------|

Zachy
     TR-----------------------------------
E||-/8------------------12-----------------|
B||----------------------------------------|
G||----------------------------------------|
D||----------------------------------------|
A||----------------------------------------|
D||----------------------------------------|

Syn
     TR-----------------------------------
E||-/10-----------------13-----------------|
B||----------------------------------------|
G||----------------------------------------|
D||----------------------------------------|
A||----------------------------------------|
D||----------------------------------------|

Zachy
     TR-----------------------------------
E||-/7------------------10-----------------|
B||----------------------------------------|
G||----------------------------------------|
D||----------------------------------------|
A||----------------------------------------|
D||----------------------------------------|

Syn
    TR-----------------------------------------------
E||---------------------------------------------------|
B||-13--------17--------13----------------------------|
G||-------------------------------15--------14--------|
D||---------------------------------------------------|
A||---------------------------------------------------|
D||---------------------------------------------------|

Zachy
    TR-----------------------------------------------
E||---------------------------------------------------|
B||-10--------13--------10----------------------------|
G||-------------------------------12--------10--------|
D||---------------------------------------------------|
A||---------------------------------------------------|
D||---------------------------------------------------|

Syn
E||---------------------------------------------10-|
B||--------------------------8h11p8h11-------10----|
G||--------------7h10p7h10--------------7h10-------|
D||--7h10p7h10-------------------------------------|
A||------------------------------------------------|
D||------------------------------------------------|

Zachy
E||----------------------------------------------13-|
B||-------------------------11h15p11h15-------13----|
G||-------------10h14p10h14-------------10h14-------|
D||-10h14p10h14-------------------------------------|
A||-------------------------------------------------|
D||-------------------------------------------------|

Syn
E||-17p13----12-------------/17~~~~-16---|
B||-------15----15-----------------------|
G||----------------14p12-----------------|
D||----------------------15--------------|
A||--------------------------------------|
D||--------------------------------------|

Zachy
E||-20p17----15--------------------------|
B||-------18----18p15-------/18~~~~-17---|
G||-------------------15p14--------------|
D||--------------------------------------|
A||--------------------------------------|
D||--------------------------------------|

Syn
E||---------------13h15h17-18~-22p20p18----------|
B||-/18~-13h15h17-----------------------22p20p18-|
G||----------------------------------------------|
D||----------------------------------------------|
A||----------------------------------------------|
D||----------------------------------------------|

Zachy
E||---------------10h12h13-15~-18p17p15----------|
B||-/15~-10h11h13-----------------------18p17p15-|
G||----------------------------------------------|
D||----------------------------------------------|
A||----------------------------------------------|
D||----------------------------------------------|

Syn
E||--------------15h17h18------------||
B||-17~-15h17h18----------20~-18\----||
G||----------------------------------||
D||----------------------------------||
A||----------------------------------||
D||----------------------------------||

Zachy
E||--------------12h13h15/18~-17\----||
B||-13~-11h13h15---------------------||
G||----------------------------------||
D||----------------------------------||
A||----------------------------------||
D||----------------------------------||
Tap to rate this tab
# A B C D E F G H I J K L M N O P Q R S T U V W X Y Z