Song name
# A B C D E F G H I J K L M N O P Q R S T U V W X Y Z

Avenged Sevenfold - Second Heartbeat tab

|---------------------------------------13-13h15--13--------------------------|
|--13-----------------15----------13-16--------------16-13-13h15--13----13----|
|-----12----------12-----15----15------------------------------------15----12-|
|--------13-12-13-----------15------------------------------------------------|
|-----------------------------------------------------------------------------|
|-----------------------------------------------------------------------------|

|--------------------------|
|--------------------------|
|-----12-------------------|
|--13----13---------12-13--| (This is the fill-in riff played in the live version of the solo.)
|-----------15---15--------|
|--------------------------|

----------------------------------------------------13h15-13------//18-16-15---------|
13----------------------15----------------13h15h16-----------16-13-----------16-13---|
---12----------------12----15----12h13h15--------------------------------------------|
------13-12-13-12-13----------15-----------------------------------------------------|
-------------------------------------------------------------------------------------|
-------------------------------------------------------------------------------------|

|--------------------------|--------11h13p11-------11h15p11------------------------|
|--------------------------|-----13----------13- -13--------- 13---------------13~-|
|--15b16--15b16--15b17------|--12---------------12---------------12----------12----|
|--------------------------|----------------------------------------13----13-------|
|--------------------------|-------------------------------------------15----------|
|--------------------------|-------------------------------------------------------|
                            |______SWEEP PICKING____________________________________|


|--------------------------------------------------10h13p10-----------------|
|------------------------------11h13p11---------13---------13--------13~----|
|--------10h12p10----------10-----------12---12--------------12---12--------|
|-----12----------12----12-----------------13-------------------13----------|
|--13-----------------13----------------------------------------------------|
|---------------------------------------------------------------------------|
|___________________SWEEP PICKING_______________________________________________|



|--18-16-15-16-15-13------------------------------------------------------------|
|--------------------16-15-13----------16-15-13---------------------------------|
|-----------------------------15-14-12----------15-14-12------------------------|
|--------------------------------------------------------15-14-12-15-14-12-10---|v
|-------------------------------------------------------------------------------|
|-------------------------------------------------------------------------------|


|------------------------|--20p15------15h20p15-----15h20p15------15h20p15------15---|
|-----------------16-15--|-------16--16--------16 -16--------16--16--------16--16----|
|--------15-12-13--------|---------17------------17------------17------------17------|
|--12-13-----------------|-----------------------------------------------------------|
|------------------------|-----------------------------------------------------------|
|------------------------|-----------------------------------------------------------|
                        |__________________SWEEP PICKING________________________________|


           down       up         down       up        down      up        down    up
          |------||------||------||------||------||------||-----||--------------------|
|--22-22----------22-22---------22-22---------22-22---------22 b24--------------------|
|-------20-----20-----20-----20-----20-----20-----20-----20---------------------------|
|---------19-19---------19-19---------19-19---------19-19-----------------------------|
|-------------------------------------------------------------------------------------|
|-------------------------------------------------------------------------------------|
|-------------------------------------------------------------------------------------|
    |___________________SWEEP PICK IN TRIPLETS SHOWN ABOVE____________|

|----------------------------------------------------15h18p15-------15-18/20v-----|
|--------------------11h13h15p13p11---------------16---------16--16---------------|
|-----------12h13h15----------------15--13-12/17---------------17-----------------|
|--13h15h17-----------------------------------------------------------------------|
|---------------------------------------------------------------------------------|
|---------------------------------------------------------------------------------|
                                                 |_______SWEEP PICKING_________|
Tap to rate this tab
# A B C D E F G H I J K L M N O P Q R S T U V W X Y Z