Song name
# A B C D E F G H I J K L M N O P Q R S T U V W X Y Z

Avenged Sevenfold - Mia tab

this is my campaign to submit avenged sevenfold songs. I was looking for some good tabs
by them and i couldnt find some accurate ones. For this song though all of it was very
well tabbed out except for the solo. So heres the version from the book and it sounds 
pretty accurate when i play it on guitar so good luck and i hope u enjoy.

e----------10--12--13---------13-15-16^---13--/20-18-----------------------|
b--------10--10--10---------15-----------------------18--------------------|
g------10-------------13--13----------------------------19-(19)\-15----14--|
d-11-12-----------------15-------------------------------------------------|
a--------------------------------------------------------------------------|
d--------------------------------------------------------------------------|

e--------------------13------------------------------20--------18----------|
b----------13-11-------13---------------9-12-14-13-14--20-17-----20-17-----|
g-(14)\---------10-------10---------9-10--------------------19--------19---|
d------8/10-------12-------12~~---10---------------------------------------|
a--------------------------------------------------------------------------|
d--------------------------------------------------------------------------|

e-17--20--12---------------------------------------9---10---12---/17--(17)^-|
b---20--20--15-13-------------------------------10--------------------------|
g----------------15-12---(12)\------9---10---12-----------------------------|
d-------------------------------11------------------------------------------|
a---------------------------------------------------------------------------|
d---------------------------------------------------------------------------|

e---------------------------------------------------------------------------|
b-14-14-15-15/17-17-17/20^-20--(20)1817------17-----------------------------|
g--------------------------------------1717----1717--------------17---------|
d------------------------------------------19------1917---------19-20191720-|
a------------------------------------------------------2017201720-----------|
d---------------------------------------------------------------------------|

e-----------------17--------17201717-----------------1518181515--1518181515-|
b---18----------18--18181718--------18-15-(15)/19\-18----------18-----------|
g-17--1917171719------------------------------------------------------------|
d---------------------------------------------------------------------------|
a---------------------------------------------------------------------------|
d---------------------------------------------------------------------------|

e-22---------22--------------------------------------------------12--12/15--|
b---1818-------1818-------------------------------15^----------13--13-------|
-g-------1919-------19--------------15171514151314------------12------------|
d------------------------1517151717-----------------------1214--------------|
a--------------------1717------------------------------/15------------------|
d---------------------------------------------------------------------------|

e---15--20--1817221818171918----16\15----------------------|
b-17--17--------------------1816-----161317\1613-----------|
g-----------------------------------------------15~~-------|
d----------------------------------------------------------|
a----------------------------------------------------------|
d----------------------------------------------------------|

The end i hope u like it and enjoy. This band is fucking kick ass!!!!
Tap to rate this tab
 
# A B C D E F G H I J K L M N O P Q R S T U V W X Y Z