Song name
# A B C D E F G H I J K L M N O P Q R S T U V W X Y Z

Avenged Sevenfold - So Far Away tab

Song: So Far Away
Artist: Avenged Sevenfold
Tuning: Standard

This song is just chords except for the solo


Em:      G:       D:       Bm:     C:      Am:     E:      C7:
e|-0-|   e|-3-|   e|-2-|   e|-2-|  e|-0-|  e|-0-|  e|-0-|  e|-0-|
B|-0-|   B|-0-|   B|-3-|   B|-3-|  B|-1-|  B|-1-|  B|-0-|  B|-0-|
G|-0-|   G|-0-|   G|-2-|   G|-4-|  G|-0-|  G|-2-|  G|-1-|  G|-0-|
D|-2-|   D|-0-|   D|-0-|   D|-4-|  D|-2-|  D|-2-|  D|-2-|  D|-2-|
A|-2-|   A|-2-|   A|-0-|   A|-2-|  A|-3-|  A|-0-|  A|-2-|  A|-3-|
E|-0-|   E|-3-|   E|-2-|   E|-2-|  E|-0-|  E|-0-|  E|-0-|  E|-0-|

Em
Never feared for anything

Em
Never shamed but never free

G                      D
A life that healed the broken heart 

     Bm          C
With all that it could


Em                         
Lived the life so endlessly

Em
Saw beyond what others see

G                    D
I tried to heal your broken heart

     Bm         C
With all that I could


C
Will you stay?

D
Will you stay away forever?


Em                        G
How do i live without the ones i love?

Am                                Em        D
Time still turns the pages of the book it's burned

Em                    G
Place and time always on my mind

  Am                                C     D
I have so much to say but you're so far away



Em
Plans of what our futures hold

Em
Foolish lies of growin' old

   G                 D            Bm          C
It seems we're so invincible, the truth is so cold


Em
A final song, a last request

Em
A perfect chapter lay at rest

G              D             Bm          C
Now and then I try to find a place in my mind

      C
Where you can stay

D
You can stay awake forever



Em                        G
How do I live without the ones i love?

Am                                Em        D                         
Time still turns the pages of the book it's burned

Em                    G
Place and time always on my mind

  Am                                C     D
I have so much to say but you're so far away


E                C
Sleep tight, I'm not afraid

    Am                    C
The ones that we love are here with me

E          C   
Lay away a place for me

          D                            C
'Cause as soon as I'm done, I'll be on my way

   D
To live eternally


Solo I
e|-------------------------------------------------------------------------|
B|--------9--12-12b13r12--8------/10--10h12p10-----------------------------|
G|--/9--------------------------------------------/9-12-12/14-14b16r14-12--|
D|-------------------------------------------------------------------------|
A|-------------------------------------------------------------------------|
E|-------------------------------------------------------------------------|
Rhythm Chords:
     E             C              Am                 C



e|-----------------------------------------------------------------15b17r15|
B|--------9--12-12b13r12--8------/15-15-17-17--19--19-20-17-----15---------|
G|--/9---------------------------------------------------------------------|
D|-------------------------------------------------------------------------|
A|-------------------------------------------------------------------------|
E|-------------------------------------------------------------------------|
Rhythm Chords:
     E          C                 D                   C               D


e|-------------------------------------------------------------------------|
B|-19-15---17b19r17--------------------------------------------------------|
G|-------------------------------------------------------------------------|
D|-------------------------------------------------------------------------|
A|-------------------------------------------------------------------------|
E|-------------------------------------------------------------------------|
Rhythm Chords:
  (D)


Em                        G
How do I live without the ones i love?

Am                                Em        D                         
Time still turns the pages of the book it's burned

Em                    G
Place and time always on my mind

        Am                                 C       D
And the light you left remains but it's so hard to stay  

       Am                                C   D     Em~
When I have so much to say and you're so far away

  

Bridge (Done with a 12-string; chords written below for reference)

e|-0---------0-----2-------3-------------------------------------|
B|-----0-------0-------3-------3---1---------1-----0-------------|
G|-------0-------0---------------------2-------2-------0---2-----|
D|-2-------2-------0-------0-------------2-------2-------------0-|
A|---------------------------------0-------0-------2-------0-----|
E|---------------------------------------------------------------|
   Em              D       (G)     Am              G       D

e|---------------------------------------------------------------|
B|-----------------------------0---0-----------------------------|
G|-0---------0-----------------------------0~------0~------------|
D|-----2-------2---4---------4---------2~------2~----------------|
A|-------2-------2-----0---0-------3-----------------------------|
E|-0-------0-------2-----2---------------------------------------|
   Em              D               C7

e|-0---------0-----2-------3-------------------------------------|
B|-----0-------0-------3-------3---1---------1-----0-------------|
G|-------0-------0---------------------2-------2-------0---2-----|
D|-2-------2-------0-------0-------------2-------2-------------0-|
A|---------------------------------0-------0-------2-------0-----|
E|---------------------------------------------------------------|
   Em              D      (G)      Am              G       D

e|---------------------------------------------------------------|
B|-----------------------------0---0-----------------------------|
G|-0---------0-----------------------------0~------0~------------|
D|-----2-------2---4---------4---------2~------2~----------------|
A|-------2-------2-----0---0-------3-----------------------------|
E|-0-------0-------2-----2---------------------------------------|
   Em              D               C7

Solo II

e|--------------------------------------------------------------------|
B|--/17----19--20--13----12--10--12p10s8------------------------------|
G|------------------------------------------/11--/16-16\9-9/12--------|
D|--------------------------------------------------------------------|
A|--------------------------------------------------------------------|
E|--------------------------------------------------------------------|
Rhythm Chords:
     Em    D       Am    G   D         Em    D        C7

e|--------------------------------------------------------------------|
B|--/17----19--20--13----12--10--12p10s8------------------------------|
G|------------------------------------------/11--/16-16\9-9/12--------|
D|--------------------------------------------------------------------|
A|--------------------------------------------------------------------|
E|--------------------------------------------------------------------|
Rhythm Chords:
     Em    D       Am    G   D         Em    D        C


e|----------------------------|
B|----------------------------|
G|-/12--11---/16-16\9/12------|
D|----------------------------|
A|----------------------------|
E|----------------------------|
Rhythm Chords:
    Em  D        C

e|-------------------------------------------------------------------------|
B|--/17----19--20--13----12b13r12-10--12p10s8------------------------------|
G|-----------------------------------------------/11--/16-16\9-9/12--------|
D|-------------------------------------------------------------------------|
A|-------------------------------------------------------------------------|
E|-------------------------------------------------------------------------|
Rhythm Chords:
     Em    D       Am    G        D         Em    D        C

Lyrics:
I love you! You were ready! The pain is strong enough to despise!

e|-------------------------------------------------------------------|
B|--/17----19--20--13---15-17-15-13-15-12--12-13-10---12p10s8--------|
G|-------------------------------------------------------------------|
D|-------------------------------------------------------------------|
A|-------------------------------------------------------------------|
E|-------------------------------------------------------------------|
Rhythm Chords:
     Em    D       Am                  G         D          Em

Lyrics:
But I'll see you! When He lets me! Your pain is gone! Your hands are...

e|-------------------------------------------------------|
B|-------------------------------------------------------|
G|--/11--/16-16\9-9/12--12b13r12---11---/16-16\9-9/12----|
D|-------------------------------------------------------|
A|-------------------------------------------------------|
E|-------------------------------------------------------|
Rhythm Chords:
    D        C                Em   D        C

Lyrics:
...tied! So far away!


e|---------------------------------------------------------|
B|---------------------------------------------------------|
G|--/12---11---/16-16\9-9/12-----/12---11---/16-16\9-9/12--|
D|---------------------------------------------------------|
A|---------------------------------------------------------|
E|---------------------------------------------------------|
Rhythm Chords:
     Em   D        C              Em   D        C

Lyrics:
And I need you to know. So far away!


e|-------------------------------------------------------|
B|-------------------------------------------------------|
G|--/12--11--7/9~----------------------------------------|
D|-------------------------------------------------------|
A|-------------------------------------------------------|
E|-------------------------------------------------------|
Rhythm Chords:
     Em  D     C

Lyrics:
And I need you to, need you to know…
Tap to rate this tab
 
# A B C D E F G H I J K L M N O P Q R S T U V W X Y Z