Song name
# A B C D E F G H I J K L M N O P Q R S T U V W X Y Z

Avenged Sevenfold - Radiant Eclipse tab

Avenged Sevenfold
Radiant Eclipse (Intro)
from: Waking The Fallen
Recorded Hopless Records 2003

I didnt do the whole tab, just the intro, because i looked at other tabs and the 
intro didnt seem quite right, so i will give it a try.

Guitar 1 tuning 'DADGBE' Distorted
Guitar 2 tuning 'DADGBE' Distorted

Guitar 1 Riff A. let notes ring
E|--------------------------------------|
B|--8--------8--------7---------7-------|
G|----5---5----5---5-----5---5----5---5-|
d|------5--------5---------5--------5---|  Repeat this for a while
A|--------------------------------------|
D|--------------------------------------|

Guitar 2 Riff A.
E|--------------------------------------|
B|--------------------------------------|
G|--------------------------------------|
d|-0-0-0---0-0-0-1----------------------|  Repeat this for a while as well
A|-0-0-0---0-0-0-1----------------------|  
D|-0-0-0---0-0-0-1----------------------|

Guitar 2 cont. Riff B.(Palm muted)
E|--------------------------------------|
B|--------------------------------------|
G|--------------------------------------|   This part comes after Riff A.
d|-0-0-0-0-0-0-1-0-0-0-0----------------|   It goes along with the drum 
A|-0-0-0-0-0-0-1-0-0-0-0----------------|   beat the Rev has going on, just
D|-0-0-0-0-0-0-1-0-0-0-0----------------|   listen and you'll get it.

Guitar 1 Riff B.
E|----------------------------------------------------------|
B|----------------------------------------------------------|
G|----------------------------------------------------------|
d|--5--3-4-7-6-4-5--3-4-7-6-4-3-3h5--3-4-7-6-4-5--3-4-7-6-5-|
A|----------------------------------------------------------|
D|----------------------------------------------------------|

Riff order
Guitar 1    Guitar 2
A            A
             B

B

                        R.I.P. The Reverend Tholomew Plague
                 Teach Jesus how to play the drums right.
Tap to rate this tab
# A B C D E F G H I J K L M N O P Q R S T U V W X Y Z