Song name
# A B C D E F G H I J K L M N O P Q R S T U V W X Y Z

Avenged Sevenfold - So Far Away tab

| /  slide up
| \  slide down
| h  hammer-on
| p  pull-off
| ~  vibrato
| +  harmonic
| x  Mute note
this is my first tab, this is the most easy way to play without moving to 
much around the fretboard. also this is the way synyster gates plays this.

E----4--7b--3--5--5--7--5-----3--5b-3------------|
B-5-----------------------5----------------------|
G------------------------------------------------|
D------------------------------------------------|
A------------------------------------------------|
E------------------------------------------------|

E|-------4--7b--3----10-10--12-12---14-14--15--12--/10---15b-15---10--12b---|
B|---5--------------------------------------------------------------------|
G|------------------------------------------------------------------------|
D|------------------------------------------------------------------------|
A|------------------------------------------------------------------------|
E|------------------------------------------------------------------------|

Tap to rate this tab
 
# A B C D E F G H I J K L M N O P Q R S T U V W X Y Z