Song name
# A B C D E F G H I J K L M N O P Q R S T U V W X Y Z

Avenged Sevenfold - So Far Away Acoustic tab

So Far Away - Acoustic Guitar Solo Tabs By Connor Chooch

im pretty sure this is one of the most basic ways to play it, but this is what i
did on the video so here you guys go:)
enjoy! subscribe me!!!
find my youtube profile if you see any changes or something my username is Connor Chiuchiolo

E|---0---------------0-------2-------3-------------------------------7-------5-----------|
B|-------0---------------0-------3-------3---1---------------1---------------------------|
G|-----------0-----------------------------------2---------------2-----------------------|
D|---2-----------2-----------0-------0---------------2-------------------0-------0-------|
A|-------------------------------------------0-----------0-------------------------------|
E|-------------------------------------------------------------------7-------5-----------|



E|---3---------------3-----------------------------------------------------------|
B|-------0---------------0-----------------------0---0---------------------------|
G|-----------0-------------------2---------------------------0-----------0-------|
D|---2-----------2-----------4-------4-------4-----------2-----------2-------2---|
A|---------------------------0-----------0-----------3-----------3---------------|
E|-------------------------------------------------------------------------------|
Tap to rate this tab
# A B C D E F G H I J K L M N O P Q R S T U V W X Y Z