Song name
# A B C D E F G H I J K L M N O P Q R S T U V W X Y Z

Avenged Sevenfold - So Far Away tab

Avenged Sevenfold
So Far Away


R.I.P. The Rev

Hey, i tried to figure this awsome arpeggio
this is the best i could do..
i put the necessary chords over the tabs
so change them accordingly..





    Em            D           Am                G            Em
e-0-------0-------2-----3--------------------------------------------------|
B---0--------0-------3-----3--1----------1------3-----0--------------------|
G-----0--------------------------2----------2------4-----2---0--------0----|
D-2-----2---------0----------------2----------------------------2--------2-|
A-----------------------------0-------0---------------------------2--------|
E-----------------------------------------------3-----2------0------0------|
                   Cadd9
e-------------------------0---3--------------------------|
B---------------------0----------------------------------|
G-------2----------------------------------0-------------|
D--3/4-----4----4-----------------2-----2------2---------|
A------------0-----3-----------------3-------------------|
E--------------------------------------------------------|

please rate/comment if you guys like it..
Tap to rate this tab
# A B C D E F G H I J K L M N O P Q R S T U V W X Y Z