Song name
# A B C D E F G H I J K L M N O P Q R S T U V W X Y Z

Avenged Sevenfold - Critical Acclaim tab

This is the correct and easist way to play the solo to Critical Acclaim by Avenged Sevenfold.

Please don't judge, this is my first tab :)

Tuning: Drop D


Solo 1:

E|----/10-8-7-------------------15----------------------6-6-8--/13-11-10------|
B|------------8----13--13-15-16---16-13--13--13-11-10----6--------------11-11-|
G|-------------------12----------------12------------10-------------------10--|
D|----------------------------------------------------------------------------|
A|----------------------------------------------------------------------------|
D|----------------------------------------------------------------------------|

E|----------------------------------/9-10-12--12/13-12-13-/18--13p12--16b---|
B|-13-11-13b-13B-13-15-16-15b-13-15b----------------------------------------|
G|--------------------------------------------------------------------------|
D|--------------------------------------------------------------------------|
A|--------------------------------------------------------------------------|
D|--------------------------------------------------------------------------|

Solo 2:

E|-2--3--5--3--2--3--5--3-5-6-5-3-2-5-3-2-3p2--2------------------------|
B|---------------------------------------4---4--4-3-2-------------------|
G|---------------------------------------------------3-2-3-2-3p2-2------|
D|----------------------------------------------------------5---5-4bvv--|
A|----------------------------------------------------------------------|
D|----------------------------------------------------------------------|


E|----------------------------------------8-10-8-7-8p7-7-----------------|
B|-8--9--12--9--8--9--12--8-9-12--8-9-12--8-9-12--------9---9-9-8--------|
G|---------------------------------------------------------8-7-8-7-------|
D|----------------------------------------------------------------9------|
A|-----------------------------------------------------------------------|
D|-----------------------------------------------------------------------|


E|-12-13-15-13-12-13-15---12-13-15(x8)--17b------------------------------|
B|-----------------------------------------------------------------------|
G|-----------------------------------------------------------------------|
D|-----------------------------------------------------------------------|
A|-----------------------------------------------------------------------|
D|-----------------------------------------------------------------------|

E|-9-10-12-10-9-10-12-/9-10-12-/15-13-12-18-17--------20b----------------|
B|--------------------------------------------15-17-18-------------------|
G|-----------------------------------------------------------------------|
D|-----------------------------------------------------------------------|
A|-----------------------------------------------------------------------|
D|-----------------------------------------------------------------------|

And that's how you play the solo to Critical acclaim! hope it helped! Thanks for viewing!
Tap to rate this tab
# A B C D E F G H I J K L M N O P Q R S T U V W X Y Z