Song name
# A B C D E F G H I J K L M N O P Q R S T U V W X Y Z

Avenged Sevenfold - Fiction tab

                    Intro                                      Intro
e|----------------------------|-------------------------------------------------|
B|13-12-13--------------------|----11-11-11-13-13-13-17-17-17-------------------|
G|---------13-9-12-13-12-x8--|-10-----------------------------------------------|
D|----------------------------|-------------------------------------------------|
A|----------------------------|-------------------------------------------------|
E|----------------------------|-------------------------------------------------|
             Intro Riff                                     Intro Riff
e|----------------------------|------------------------------------------------|
B|13-12-13--------------------|--11-11-11-13-13-13-17-17-17--------------------|
G|---------13-9-12-13-12-x2--|-------------------------------------------------|
D|----------------------------|------------------------------------------------|x2
A|----------------------------|------------------------------------------------|
E|----------------------------|------------------------------------------------|
            Verse                                        Intro Riff
e|--------3-3-3-1-1-1-0------|-----------------------------------------------------|
B|----------------------------|----------------------------------------------------|
G|-5-5-----------------------|-----------PLAY INTRO RIFF HERE----------------------|
D|-5-5-3----------------x2---|-----------------------------------------------------|
A|-3-3-3----------------------|----------------------------------------------------|
E|-----1----------------------|----------------------------------------------------|

            Verse                                    Not That I Could.....Part
e|--------3-3-3-1-1-1-0------|------------------------------------------------------|
B|----------------------------|-----------------------------------------------------|
G|-5-5-----------------------|-5---5---5--------------------------------------------|
D|-5-5-3----------------x2---|-5-6-5-6-5-6------------------------------------------|
A|-3-3-3----------------------|3-6-3-6-3-6------------------------------------------|
E|-----1----------------------|--4---4---4------------------------------------------|
           Intro Riff                          Verse
e|-----------------------|--------3-3-3-1-1-1-0-|-----------------------------------|
B|-----------------------|----------------------|-----------------------------------|
G|--PLAY INTRO RIFF HERE-|-5-5------------------|-PLAY NOT THAT I COULD PART HERE---|
D|----------------------|--5-5-3---------------|------------------------------------|
A|-----------------------|-3-3-3----------------|-----------------------------------|
E|-----------------------|-----1----------------|-----------------------------------|
                          This is the part where is sound like people saying ahhh
e|-------------|------------------------------------------------------------------|
B|-------------|-13-12-13p12p10---------------------------------------------------|
G|5-4---------|-----------------12-14----9-10-9-10-9-7-5-4-7----------------------|
D|5-4-6-5--x2-|-----------------------12------------------------------------------|
A|3-2-6-5-----|-------------------------------------------------------------------|
E|----4-3-----|-------------------------------------------------------------------|
      I hope it's worth it..... when I'm not with you
e|-----------------------------------------------------------------------------|
B|-----------------------------------------------------------------------------|
G|-9-7-7-9-14-14-12-7-9-7-5-9-12-14-12-9-7s5-5-5-10-9-7-5----------------------|
D|-----------------------------------------------------------------------------|
A|-----------------------------------------------------------------------------|
E|-----------------------------------------------------------------------------|

e|-----------------------------------------------------------------------------|
B|-----------------------------------------------------------------------------|
G|-9-7s5-7s9-14-16-14-12-7-9-7s5-9-12-14-12s9-7s5-5-5-10-9-7-5-----------------|
D|-----------------------------------------------------------------------------|
A|-----------------------------------------------------------------------------|
E|-----------------------------------------------------------------------------|

e|-----------------------------------------------------------------------------|
B|-----------------------------------------------------------------------------|
G|-9-7-7-9-14-14-12-7-9-7-5-9-12-14-12-9-7s5-5-5-10-9-7-5----------------------|
D|-----------------------------------------------------------------------------|
A|-----------------------------------------------------------------------------|
E|-----------------------------------------------------------------------------|

e|-----------------------------------------------------------------------------|
B|-----------------------------------------------------------------------------|
G|-9-7s5-7s9-14-16-14-12-7-9-7s5-9-12-14-12s9-7s5-5-5-10-9-7-5-----------------|
D|-----------------------------------------------------------------------------|
A|-----------------------------------------------------------------------------|
E|-----------------------------------------------------------------------------|




-Nathan Hager-
Tap to rate this tab
# A B C D E F G H I J K L M N O P Q R S T U V W X Y Z