Song name
# A B C D E F G H I J K L M N O P Q R S T U V W X Y Z

Avenged Sevenfold - Warmness On The Soul tab

e-|--------------------------------------------------------------------------|
B-|--------------------------------------------------------------------------|
G-|------------------------------------------9-7-----------------------------|
D-|-----5/7-55/7/5-----------------------7h9----9-9/1010/1212/1414/12----|
A-|-5/7--------------/9-7-55/2---/7---7h9-----------------------------------|
E-|--------------------------------------------------------------------------|

e-|--------------------------------------------------------------------------|
B-|-----------------------/10------------------------------------------------|
G-|--------------------------------------------------------------------------|
D-|-99/10/9-7---/12--7-------7---/1210---12/14---14/12---------------------|
A-|--------------------------------------------------------------------------|
E-|--------------------------------------------------------------------------|

e-|--------------------------------------------------------------------------|
B-|--------------------------------------------------------------------------|
G-|-12-11----12-11----12/14-12-11-12-11-----------11-12-11-------------------|
D-|-------12-------12-------------------1212/14-----------------------------|
A-|--------------------------------------------------------------------------|
E-|--------------------------------------------------------------------------|
Tap to rate this tab
# A B C D E F G H I J K L M N O P Q R S T U V W X Y Z