Song name
# A B C D E F G H I J K L M N O P Q R S T U V W X Y Z

Avenged Sevenfold - All Hail Andronikos tab

All Hail Andronikos

This song preview was released by Avenged Sevenfold recently. It is expected
to be a snippet of one of the songs in their upcoming record this summer. It
hasn't been officially named, however, the video was titled
"#AllHailAndronikos"


Guitar 1, 2, 3: Drop D

    Guitar 1
e||-----------------------------------|
B||---------------------------7---9---|
G||-2------2-5------5-6-----5---6---6-|
D||---4--------7--------7-------------|
A||-----------------------------------|
D||-----------------------------------|
 |
 |  Guitar 2
e||-----------------------------------|
B||-----------------------------------|
G||---------------------------6---9---|
D||-4------4-7------6-7-----7---7---7-|
A||---5--------8--------9-------------|
D||-----------------------------------|


   Guitar 1
e|---------------------------------14----16----16b~~~-||
B|-10------10-13------13-14----/14----14----14--------||
G|----11---------14-----------------------------------||
D|----------------------------------------------------||
A|----------------------------------------------------||
D|----------------------------------------------------||
 |                                                     |
 | Guitar 2                                            |
e|----------------------------------------------------||
B|-7-------7--10------9--10--------17----17----17b~~~-||
G|----7----------10------------/14----14----14--------||
D|----------------------------------------------------||
A|----------------------------------------------------||
D|----------------------------------------------------||


Guitar 3 (Rhythm)
e||-----------------------------------------------------------------|
B||-----------------------------------------------------------------|
G||-----------------------------------------------------------------|
D||-----------------------------------------------------------------|x5
A||-----0-0-----0-0-----3-3-----3-3-----4-4-----4-4-----4-4-----4-4-|
D||-000-0-0-000-0-0-333-3-3-333-3-3-444-4-4-444-4-4-444-4-4-444-4-4-|

e|-----------------------------------------------------------------|
B|-----------------------------------------------------------------|
G|-----------------------------------------------------------------|
D|-----------------------------------------------------------------|
A|-----0-0-----0-0-----3-3-----3-3-----4-4-----4-4-4-4-4-4-4-4-4-4-|
D|-000-0-0-000-0-0-333-3-3-333-3-3-444-4-4-444-4-4-4-4-4-4-4-4-4-4-|

e|----------------------------------------|
B|----------------------------------------|
G|----------------------------------------|
D|-0--------------3-------7-------4-------|x3
A|-0--------------3-------7-------4-------|
D|-0--------------3-------7-------4-------|

e|-------------------||
B|-------------------||
G|-------------------||
D|-4-4-4---3-3-3-----||
A|-4-4-4---3-3-3-----||
D|-4-4-4---3-3-3-----||
Tap to rate this tab
# A B C D E F G H I J K L M N O P Q R S T U V W X Y Z