Song name
# A B C D E F G H I J K L M N O P Q R S T U V W X Y Z

Avenged Sevenfold - Fiction tab

My first tab so please message any corrections needed! This is the piano part for guitar.




INTRO
Guitar 1

     (Repeat 8 times, then play next bar)

D|-10-9-10-----------------|----------------------------------|
A|---------11----10-11-10--|----13-13-13--15-15-15--19-19-19--|
F|------------11-----------|-0--------------------------------|
C|-------------------------|----10-10-10--12-12-12--16-16-16--|
G|-------------------------|----------------------------------|
C|-------------------------|----------------------------------|

Guitar 2
keep repeating
D|-------------------------|
A|-------------------------|
F|-------------------------|
C|----0-----0-----0-----0--|
G|--0-----0-----0-----0----|
C|0-----0-----0-----0------|

VERSE
   (Repeat this for 'Like a friend we saw it through...' and then go back to intro)
D|-2---10-10-12-12-14-14-17--|-2-------------------5-5-5--3-3-3--2-|
A|-3-------------------------|-3---------------3---3-3-3--3-3-3--0-|
F|-2---7--7--9--9--11-11-14--|-2---------------4---4-4-4--4-4-4----|
C|-0-------------------------|-0---------------5-------------------|
G|-0-------------------------|-0-----------------------------------|
C|---------------------------|-----------------5-------------------|

CHORUS

D|------------------------------------------------------|
A|-------10-11-10----------10-11-10----------10-11-10---|
F|----11----------11----11----------11----11----------11|
C|-12----------------12----------------12---------------|
G|------------------------------------------------------|
C|------------------------------------------------------|

D|----------12----------------12----------------12-----------|
A|----10-11----11-10----10-11----11-10----10-11----11-10-----|
F|-----------------------------------------------------------|
C|-12----------------12----------------12----------------12--|
G|-----------------------------------------------------------|
C|-----------------------------------------------------------|

BRIDGE

D|-------------------------|-------------------------|-------------|
A|-------11-10-------11-10-|-------11-10-------11-10-|-------11-10-|
F|----12-----------9-------|----10-----------9-------|----10-------|
C|-12-----------11---------|-12-----------11---------|-12----------|
G|-------------------------|-------------------------|-------------|
C|-------------------------|-------------------------|-------------|

D|-------------|------------------------|------------------------|
A|-------11-10-|------11-10-------11-10-|-------12-10------12-10-|
F|----10-------|----9-----------9-------|----11----------9-------|
C|-12----------|-11----------11---------|-12----------11---------|
G|-------------|------------------------|------------------------|
C|-------------|------------------------|------------------------|

D|-------------------------|--------------14-14-|-15-15-------------|
A|-------14-12--10-12------|-7--12-12--10-15-15-|-17-17-17-15-14-17-|
F|----11--------------9-11-|-7--12-12--11-14-14-|-16-16-16-16-14-14-|
C|-12----------------------|-9--12-12--12-------|----------------14-|
G|-------------------------|-10-----------------|-------------------|
C|-------------------------|--------------------|-------------------|

VERSE

D|-0----2--|-9--7--5--5-|-7--5-|-3----5-|
A|-3----3--|-0--0--7--5-|-7--7-|-3----5-|
F|-2----2--|-0--0--7--6-|-7--7-|-4----6-|
C|-4----4--|------------|------|-5----7-|
G|-0-------|------------|------|--------|
C|-0-------|------------|------|--------|

OUTRO

D|---------------|-----------------|----|
A|---------------|-----------------|----|
F|-------4-2-----|-------4-2-------|----|
C|-0-2-4-----2-4-|-0-2-4-----2-4-2-|-0--|
G|---------------|-----------------|----|
C|---------------|-----------------|----|
Tap to rate this tab
# A B C D E F G H I J K L M N O P Q R S T U V W X Y Z