Song name
# A B C D E F G H I J K L M N O P Q R S T U V W X Y Z

Avenged Sevenfold - Bat Country tab

Bat Country Solo
Avenged Sevenfold


There wasn't a decent solo tab around for this. Now there is.



                                                                        Dive w/ bar
e|--10-------------------------------------------------------------------------|
B|--13(15)--9---------8-----------3-------------------------13-15(18)15--------|
G|----------11(13)----10(12)------5(7)-------------12-13-14--------------------|
D|----------------------------------------12-12-15-----------------------------|
A|-----------------------------------------------------------------------------|
D|------------------------------------------------------------------------0----|

e|---------------------------------------------------------------------------------------------|
B|----------------------------------------------------------------------------13(15)13--10-----|
G|--5(7)5(7)5(7)/-9(10)------5(7)5(7)5(7)/-12(13)------5(7)5(7)5(7)/-15(16)--------------------|
D|---------------------------------------------------------------------------------------------|
A|---------------------------------------------------------------------------------------------|
D|---------------------------------------------------------------------------------------------|


e|-------------------------------13(15)---17h18-17-16-15----15--------------|
B|------------15(18)15-----------------------------------18----18(20)v------|
G|--13p10h13------------13p10h13--------------------------------------------|
D|--------------------------------------------------------------------------|
A|--------------------------------------------------------------------------|
D|--------------------------------------------------------------------------|

e|--/18-17------------------------------------------------------------|
B|---------18-------------13-13-13-13-15(18)15----15-18(20)-----------|
G|------------13-13-13-13----------------------13---------------------|
D|--------------------------------------------------------------------|
A|--------------------------------------------------------------------|
D|--------------------------------------------------------------------|

                                                                 
e|--------------13----------12-------15----------17-18-17-16-17-18-17-16---17-17-17-17-17-17---|
B|--15-------------10-10-10----9-9-9----14-14-14---------------------------------------------17|
G|-----10-10-10--------------------------------------------------------------------------------|
D|---------------------------------------------------------------------------------------------|
A|---------------------------------------------------------------------------------------------|
D|---------------------------------------------------------------------------------------------|


e|--10-11-12-13-12-11--------10-11-12-13-12-11---------------------|

e|--12-13-14-15-14-13--------12-13-14-15-14-13---------------------|

e|--13-15-16-17-16-15--------13-15-16-17-16-15---------------------|


e|--17-18-21-18-17-------------17-18-20-20(22)v-------------|
B|-----------------18-17-18-20------------------------------|
G|----------------------------------------------------------|
D|----------------------------------------------------------|
A|----------------------------------------------------------|
D|----------------------------------------------------------|


Play arpeggio patterns twice each
e|-17-13----------------13-17-13----------------13-16-12----------------12-16-12----------------12-|
B|-------15----------15-----------15----------15---------12----------12----------12----------12----|
G|----------14----14-----------------14----14---------------13----13----------------13----13-------|
D|-------------15-----------------------15---------------------14----------------------14----------|
A|-------------------------------------------------------------------------------------------------|
D|-------------------------------------------------------------------------------------------------|

e|-----------15-17-20-18--17-18-17----15------------18-17-------15-17-------|
B|--18----18-----------------------18------17-18-17-------17-18-------------|
G|-----19-------------------------------------------------------------------|
D|--------------------------------------------------------------------------|   x2
A|--------------------------------------------------------------------------|
D|--------------------------------------------------------------------------|




e|--17/13----18/15---------17-18-17-16---17-18-17-16---17-18-17-16---17-18-17-16---17-18-17-16-|
B|---------------------------------------------------------------------------------------------|
G|---------------------------------------------------------------------------------------------|
D|---------------------------------------------------------------------------------------------|
A|---------------------------------------------------------------------------------------------|
D|---------------------------------------------------------------------------------------------|


e|-----16-------21-18---------------------------------------|
B|--18----18-17-------20-17----17-20-17-18------------------|
G|--------------------------18------------------------------|
D|----------------------------------------------------------|
A|----------------------------------------------------------|
D|----------------------------------------------------------|


Post solo Riff


e|--10-------------------------------------------12-13-16(17)---------------------------------|
B|--13(15)---9--------8-----------------12-13-15--------------17(18)-14(15)----11-------------|
G|-----------11(13)---10(12)------13-14-------------------------------------12----13(14)------|
D|-----------------------------12-------------------------------------------------------------|
A|--------------------------------------------------------------------------------------------|
D|--------------------------------------------------------------------------------------------|
Tap to rate this tab
# A B C D E F G H I J K L M N O P Q R S T U V W X Y Z