Song name
# A B C D E F G H I J K L M N O P Q R S T U V W X Y Z

Avenged Sevenfold - Hail To The King tab

This tab has only Synyster Gates solos, isn't 100% accurate but sounds good for me.
The guitar tunning is Drop C#(or Db)

T= Tap
h= Hammer-on
p= Pull-off
~= Let the note ring
/= Slide down
[]= Notes played with triplets
{}= Notes played with tremolo Picking



Intro (two hands tapping)
e|-------15------15--------15---------15---------|
B|-17--17----17-------17--------17---------17----|
G|---16--------16-------16--------16---------16--|x3
D|---------14------14--------14---------14-------|
A|-----------------------------------------------|
E|-----------------------------------------------|

e|-17-------17-------15-------15-------14-------12-------|
B|---17-------17-------17-------17-------17-------17-----|
G|-----16-------16-------16-------16-------16-------16---|
D|-------14-------14-------14-------14-------14-------14-|
A|-------------------------------------------------------|
E|-------------------------------------------------------|

Repeat theese two parts above 6 times

Verse 1
   T       T       T       T
e|----------------------------------|
B|-5h8p5p0-5h8p5p0-5h8p5p0-10p8p5p0-|
G|----------------------------------|x3
D|----------------------------------|
A|----------------------------------|
E|----------------------------------|

   T       T       T       T
e|----------------------------------|
B|-3h5p3p0-3h5p3p0-3h5p3p0-10p5p3p0-|
G|----------------------------------|
D|----------------------------------|
A|----------------------------------|
E|----------------------------------|

Repeat 4 times


Pre-chorus
   T       T       T       T
e|-5h8p5p0-5h8p5p0-5h8p5p0-10p8p5p0-|
B|----------------------------------|
G|----------------------------------|x4
D|----------------------------------|
A|----------------------------------|
E|----------------------------------|

   T        T        T        T
e|-7h10p7p0-7h10p7p0-7h10p7p0-12p10p7p0-|
B|--------------------------------------|
G|--------------------------------------|x4
D|--------------------------------------|
A|--------------------------------------|
E|--------------------------------------|

Chorus

e|-----------------------------|
B|-8-5-7-8-7~---8-5-7-8-7~-----|
G|--------------------------7~-|x2
D|-----------------------------|
A|-----------------------------|
E|-----------------------------|

Two Hands Tapping
e|----2----2----2----2------|
B|-5-5---5----5----5----5---|
G|--4-----4----4----4----4--|x3 (In the third time hold the 4 a little)
D|-----1----1----1----1-----|
A|--------------------------|
E|--------------------------|

Verse 2
   T       T       T       T
e|----------------------------------|
B|-5h8p5p0-5h8p5p0-5h8p5p0-10p8p5p0-|
G|----------------------------------|x3
D|----------------------------------|
A|----------------------------------|
E|----------------------------------|

   T       T       T       T
e|----------------------------------|
B|-3h5p3p0-3h5p3p0-3h5p3p0-10p5p3p0-|
G|----------------------------------|
D|----------------------------------|
A|----------------------------------|
E|----------------------------------|

Repeat 4 times


Pre-chorus
   T       T       T       T
e|-5h8p5p0-5h8p5p0-5h8p5p0-10p8p5p0-|
B|----------------------------------|
G|----------------------------------|x4
D|----------------------------------|
A|----------------------------------|
E|----------------------------------|

   T        T        T        T
e|-7h10p7p0-7h10p7p0-7h10p7p0-12p10p7p0-|
B|--------------------------------------|
G|--------------------------------------|x4
D|--------------------------------------|
A|--------------------------------------|
E|--------------------------------------|

Chorus

e|-----------------------------|
B|-8-5-7-8-7~---8-5-7-8-7~-----|
G|--------------------------7~-|x2
D|-----------------------------|
A|-----------------------------|
E|-----------------------------|

Two Hands Tapping
e|----2----2----2----2------|
B|-5-5---5----5----5----5---|
G|--4-----4----4----4----4--|x3 (In the third time hold the 4 a little)
D|-----1----1----1----1-----|
A|--------------------------|
E|--------------------------|

SOLO

e|-------------------------------------------------------------------|
B|-5h8p5p0-5h8p5p0-5h8p5p0-5h8p5p0-7h10p7p0-7h10p7p0-4h7p4p0-4h7p4p0-|
G|-------------------------------------------------------------------|x2
D|-------------------------------------------------------------------|
A|-------------------------------------------------------------------|
E|-------------------------------------------------------------------|

e|---------------------------------5h8p5p0-5h8p5p0-4h7p4p0-4h7p4p0-|
B|-5h8p5p0-5h8p5p0-5h8p5p0-5h8p5p0---------------------------------|
G|-----------------------------------------------------------------|
D|-----------------------------------------------------------------|
A|-----------------------------------------------------------------|
E|-----------------------------------------------------------------|

e|-3h7p3p0-3h7p3p0-2h5p2p0-2h5p2p0-6-7~-|
B|--------------------------------------|
G|--------------------------------------|
D|--------------------------------------|
A|--------------------------------------|
E|--------------------------------------|

                                                    triplets
e|------------------------5/8-7-5~-7-8-5~-7-8-11b12-[12-12-12]r11-|
B|-----------5b7r-4~--5-7-----------------------------------------|
G|-/4~--3-4-------------------------------------------------------|
D|----------------------------------------------------------------|
A|----------------------------------------------------------------|
E|----------------------------------------------------------------|

e|-/11~-12-14-11~-12-14/19-17-15------19-20-17-19-20-17-19~-|
B|-------------------------------17~------------------------|
G|----------------------------------------------------------|
D|----------------------------------------------------------|
A|----------------------------------------------------------|
E|----------------------------------------------------------|

    Triplets                  Tremolo picking
e|-----------7-12-15~14-12~]--{[11-12-15-12-11----11--------------|
B|----------8---------------------------------12}--12}------------|
G|---------9-----------------------------------------11-----------|
D|--------9--------------------------------------------13b14r13~]-|
A|--[/7h10--------------------------------------------------------|
E|----------------------------------------------------------------|

e|---11-12-15-12-11----11-12-14-12-11----11-12-15-12-11----11-12-14-12-11---|
B|[12---------------12----------------12----------------12---------------12]|
G|--------------------------------------------------------------------------|
D|--------------------------------------------------------------------------|
A|--------------------------------------------------------------------------|
E|--------------------------------------------------------------------------|

e|-[14-15-14-12------------------------------------|
B|-------------12------7-8-7-----------------------|
G|---------------12---------8----------------------|
D|-----------------14--------9---------------------|
A|----------------------------10-7~]---------------|
E|-------------------------------------------------|

e|---------------------7-8-11-8---------------|
B|--------------------8--------8--------------|
G|-----------------8-9----------9-8-----------|
D|-----------7-8-9------------------9-8-------|
A|-/7~7-9-10--------------------------10-7~---|
E|--------------------------------------------|

                       V= Whammy bar down, r= release 
e|-------------------------------|
B|-5-8-7-5-----------------------|
G|---------8-5-4-----------------|
D|---------------7-5-------------|
A|-------------------9-7Vr--7*V--|
E|-------------------------------|

Solo end

Bridge

Two hands tapping
e|-------15------15--------15---------15---------|
B|-17--17----17-------17--------17---------17----|
G|---16--------16-------16--------16---------16--|x3
D|---------14------14--------14---------14-------|
A|-----------------------------------------------|
E|-----------------------------------------------|



e|-17-------17-------15-------15-------14-------12-------|
B|---17-------17-------17-------17-------17-------17-----|
G|-----16-------16-------16-------16-------16-------16---|
D|-------14-------14-------14-------14-------14-------14-|
A|-------------------------------------------------------|
E|-------------------------------------------------------|

Repeat theese two parts above 2 times

Two hands tapping
e|-------15------15--------15---------15---------|
B|-17--17----17-------17--------17---------17----|
G|---16--------16-------16--------16---------16--|x3
D|---------14------14--------14---------14-------|
A|-----------------------------------------------|
E|-----------------------------------------------|

e|-17-------17-------17-------17-------17-------17-------|
B|---17-------17-------17-------17-------17-------17-----|
G|-----16-------16-------16-------16-------16-------16---|x2
D|-------14-------14-------14-------14-------14-------14-|
A|-------------------------------------------------------|
E|-------------------------------------------------------|

Final Chorus

e|-----------------------------|
B|-8-5-7-8-7~---8-5-7-8-7~-----|
G|--------------------------7~-|x4
D|-----------------------------|
A|-----------------------------|
E|-----------------------------|

             Or

e|-------------------------------------------------------------------|
B|-5h8p5p0-5h8p5p0-5h8p5p0-5h8p5p0-7h10p7p0-7h10p7p0-4h7p4p0-4h7p4p0-|
G|-------------------------------------------------------------------|x8
D|-------------------------------------------------------------------|
A|-------------------------------------------------------------------|
E|-------------------------------------------------------------------|
Outro

Two Hands Tapping
e|----2----2----2----2------|
B|-5-5---5----5----5----5---|
G|--4-----4----4----4----4--|x2
D|-----1----1----1----1-----|
A|--------------------------|
E|--------------------------|

e|----2----2----2----2-------------------|
B|-5-5---5----5----5----5-3~~~~~~~~~~~~--|
G|--4-----4----4----4----4---------------|
D|-----1----1----1----1------------------|
A|---------------------------------------|
E|---------------------------------------|

That is it! Hope you guys enjoy that amazing song, thank you for check out my tab 
and sorry for a few mistakes in the tab and in my grammar.
Tap to rate this tab
 
# A B C D E F G H I J K L M N O P Q R S T U V W X Y Z