Song name
# A B C D E F G H I J K L M N O P Q R S T U V W X Y Z

Avenged Sevenfold - Hail To The King tab

-------------------------------------------------------------------------------
                             Hail To The King - Avenged Sevenfold
-------------------------------------------------------------------------------
Tabbed by: Living Bodies
Tuning: Drop D (DADGBe)

From the single 'Hail To The King' released on the 15/07/13
The timing for this is pretty easy to work out by ear and would take ages to do
it, I'd probably mess up somewhere. I'm pretty confident that this is right, but
if anyone notices a mistake let me know so it can be amended.


Part one:

e|---------------------------------------------------------------------------|
B|---------------------------------------------------------------------------|
G|-8h11p8---8h11p8---8h11p8---8h11p8---10h13p10---10h13p10---7h10p7---7h10p7-|
D|--------8--------8--------8--------8----------8----------8--------8-------8|
A|---------------------------------------------------------------------------|
D|---------------------------------------------------------------------------|

e|---------------------------------------------------------------------------|
B|---------------------------------------------------------------------------|
G|-8h11p8---8h11p8---8h11p8---8h11p8---10h13p10---10h13p10---7h10p7---7h10p7-|
D|--------8--------8--------8--------8----------8----------8--------8-------8|
A|---------------------------------------------------------------------------|
D|---------------------------------------------------------------------------|

e|---------------------------------------------------------------------------|
B|-------------------------------------9h12p9---9h12p9---6h9p6---6h9p6-------|
G|-8h11p8---8h11p8---8h11p8---8h11p8-----------------------------------------|
D|--------8--------8--------8--------8--------8--------8-------8-------8-----|
A|---------------------------------------------------------------------------|
D|---------------------------------------------------------------------------|

e|---------------------------------------------------------------------------|
B|-7h11p7---7h11p7---6h10p6---6h10p6---/11-----------------------------------|
G|---------------------------------------------------------------------------|
D|--------8--------8--------8--------8---------------------------------------|
A|---------------------------------------------------------------------------|
D|---------------------------------------------------------------------------|

______________________________________________________________________________

Part two:
e|---------------------------------------------------------------------------|
B|-------------------------------------------------15b(16)-161616-16-16------|
G|------------------------/16-15-13-15-16-13-15-16---------------------------|
D|-/8-7-8-/15-13-12-13-15----------------------------------------------------|
A|---------------------------------------------------------------------------|
D|---------------------------------------------------------------------------|

e|-------------------/18-16-14-----18-19-16-18-19-16-18----------------------|
B|-15-16-18-15-16-18-----------16--------------------------------------------|
G|---------------------------------------------------------------------------|
D|---------------------------------------------------------------------------|
A|---------------------------------------------------------------------------|
D|---------------------------------------------------------------------------|

______________________________________________________________________________

Part three:
e|--------------------11h13-14-13-11-10h13p10--------------------------------|
B|-----------------11-------------------------11-----------------------------|
G|---------8h10h11-------------------------------11-10-13-11-10--------------|
D|-------8------------------------------------------------------13-12--------|
A|-6h8h9---------------------------------------------------------------------|
D|---------------------------------------------------------------------------|

e|-------11-161616-------11-151515-------11-141414-------11-131313-----------|
B|----12--------------12--------------12--------------12---------------------|
G|-13--------------13--------------13--------------13------------------------|
D|---------------------------------------------------------------------------|
A|---------------------------------------------------------------------------|
D|---------------------------------------------------------------------------|

e|-13h14p13-11---------------------------------------------------------------|
B|-------------11------------------------------------------------------------|
G|----------------11-10h12p11-8----------------------------------------------|
D|------------------------------8--------------------------------------------|
A|--------------------------------9p6----------------------------------------|
D|---------------------------------------------------------------------------|

e|-------------------------------------10-11---------------------------------|
B|-------------------------------10-11-------11------------------------------|
G|---------------------7-8-10-11----------------11-10------------------------|
D|-----------------7-8--------------------------------13---------------------|
A|-------------5-8---------------------------------------13------------------|
D|-8-9-8-6-8-9----------------------------------------------16-15-13---------|

e|---------------------------------------------------------------------------|
B|---------------------------------------------------------------------------|
G|-8-11-10-8-7----------------------pb14(15)br(14)---------------------------|
D|-------------9-8-6---------------------------------------------------------|
A|-------------------9-8-6---------------------------------------------------|
D|-------------------------9-/7b(8)------------------------------------------|


************************************

| /   slide up
| \   slide down
| h   hammer-on
| p   pull-off
| ~   vibrato
| +   harmonic
| x   Mute note
| b   Bend
| pb  Pre-bend
| br  Bend release
| pbr Pre-bend release
| brb Bend release bend

************************************
Tap to rate this tab
 
# A B C D E F G H I J K L M N O P Q R S T U V W X Y Z