Song name
# A B C D E F G H I J K L M N O P Q R S T U V W X Y Z

Avenged Sevenfold - Planets tab

-------------------------------------------------------------------------------
                             Planets - Avenged Sevenfold
-------------------------------------------------------------------------------
Tabbed by:Carlos Ruiz
E-mail:carlosdudeman@gmail.com

Tuning:D A D G B E

Guitar 1 Rhythmic (D A D G B E)
Guitar 2 Lead     (D A D G B E)

Intro
Guitar 1
D|--------------------------------------------------------------------------|
B|--------------------------------------------------------------------------|
G|--------------------------------------------------------------------------|
D|---0----------------1--------------4--------------1-----0-----------------|
A|---0---Let-Ring-----1---Let-Ring---4---Let-Ring---1-----0---Let-Ring------|
E|---0----------------1--------------4--------------1-----0-----------------|
   0:00 to 0:54

Guitar 2
D|-----------------------------------------|
B|-----------------------------------------|
G|-----------------------------------------|
D|-----------------------------------------| x12
A|---3h5h6--3h5h6--3h5h6--3h5h6--3h5h6~----|
E|--0------0------0------0------0----------|
    *      *      *      *      *
   0:13 to 0:54
 
Guitar 1&2
D|--------------------------------------------------------------------------|
B|--------------------------------------------------------------------------|
G|--------------------------------------------------------------------------|
D|--0-----0-0-0--0---0------0-0-0-0-0-0--4----4-4-4-4----1---1-1-1----------|
A|--0-----0-0-0--0---0------0-0-0-0-0-0--4----4-4-4-4----1---1-1-1----3h5h6~|
E|--0-----0-0-0--0---0------0-0-0-0-0-0--4----4-4-4-4----1---1-1-1----------|
          * * *             * * * * * *       * * *          * * *

D|--------------------------------------------------------------------------|
B|--------------------------------------------------------------------------|
G|--------------------------------------------------------------------------|
D|--0-----0-0-0--0---0------0-0-0-0-0-0--4----4-4-4-4----1---1-1-1----------|
A|--0-----0-0-0--0---0------0-0-0-0-0-0--4----4-4-4-4----1---1-1-1----3h5h6~|
E|--0-----0-0-0--0---0------0-0-0-0-0-0--4----4-4-4-4----1---1-1-1----------|
          * * *             * * * * * *       * * *          * * *

I will put more just not yet :)

| *   Palm Mute
| /   slide up
| \   slide down
| h   hammer-on
| p   pull-off
| ~   vibrato
| +   harmonic
| x   Mute note
| b   Bend
| pb  Pre-bend
| br  Bend release
| pbr Pre-bend release
| brb Bend release bend

************************************
Tap to rate this tab
# A B C D E F G H I J K L M N O P Q R S T U V W X Y Z