Song name
# A B C D E F G H I J K L M N O P Q R S T U V W X Y Z

Avenged Sevenfold - Seize The Day Live tab

Artist: Avenged Sevenfold
Song: Seize The Day
Album: City Of Evil (2005)
Tabbed By: Adem Mars

==========================================

Tuning: Drop D and Standard Tuning

Guitar 1: Lead (DADGBE)
Guitar 2: Acoustic (EADGBE)
Guitar 3: Guitar Electric (DADGBE)
Guitar 4: Guitar Electric (DADGBE)

Legend

x  = Mute note
h  = Hammer on
p  = Pull off
~  = Vibrato
b  = bend
hb = Hold bend 
/  = Siide up
\  = Slide down
() = Bring note to normal
(x) = Alternate Picking 

==========================================

Intro: 

"Seize the day or die regreting....."

 Guitar 1: Clean
E|-----------------------------------------------0--------1------------|
B|-----------1--------3-----------------3------------------------------|
G|--2-----------------0--------0--------0--------0--------2------------|
D|--0--------3--------------------------------------------0------------|
A|-----------------------------3--------1--------3---------------------|
D|---------------------------------------------------------------------|

 Guitar 2: Rymthm
E|--1-1-1---1-1-1---3-3-3---3-3-3---0-0-0---0-0-0---0-0-0-0------------|
B|--3-3-3---1-1-1---3-3-3---3-3-3---3-3-3---5-5-5---6-6-6-6------------|
G|--2-2-2---2-2-2---0-0-0---0-0-0---3-3-3---5-5-5---7-7-7-7------------|
D|--0-0-0---3-3-3---0-0-0---2-2-2---3-3-3---5-5-5---7-7-7-7------------|
A|----------3-3-3---2-2-2---3-3-3---1-1-1---3-3-3---5-5-5-5------------|
E|----------0-0-0---3-3-3---x-x-x---x-x-x---x-x-x---x-x-x-x------------|

"I see my vision burn I feel my memories......"

 Guitar 3: Rymthm
E|------------------------------------------------------------------------------|
B|------------------------------------------------------------------------------|
G|-------------------------5-5-5---------5------7---10-10-10---9---9----7-7-7---|
D|--------5---5-5-5-5-5----5-5-5-----------7--------10-10-10---10--10---7-7-7---|
A|--3-3-4-5---5-5-5-5-5----3-3-3-----5h7--------5----8--8--8---7---7----5-5-5---|
D|--3-3-4-5---5-5-5-5-5---------------------------------------------------------|

 Guitar 1: Lead
E|--/13-12-------------|
B|-----------15b~~-----|
G|--------14-----------|
D|---------------------|
A|---------------------|
D|---------------------|

 Guitar 3: Rymthm
E|----------------------------------------------------|
B|----------------------------------------------------|
G|-----------------5-5-5-5-5-5----10-10-10----7-7-7---|
D|--5-5-5-5-5-5----5-5-5-5-5-5----10-10-10----7-7-7---|
A|--5-5-5-5-5-5----3-3-3-3-3-3-----8--8--8----5-5-5---|
D|--5-5-5-5-5-5---------------------------------------|

 Guitar 1: Lead
E|---------------------/13b~~--|
B|--\8~--11-11-11b-10~---------|
G|-----------------------------|
D|-----------------------------|
A|-----------------------------|
D|-----------------------------|

==========================================

Verse:

"I found you here, So please....."

 Guitar 2: Rymthm
E|---1-1-1-1-----3-3-3-3-----1-1-1-1-----0-0-0-0-------|
B|---3-3-3-3-----3-3-3-3-----1-1-1-1-----1-1-1-1-------|
G|---2-2-2-2-----0-0-0-0-----2-2-2-2-----0-0-0-0-------|x2
D|---0-0-0-0-----0-0-0-0-----3-3-3-3-----2-2-2-2-------|
A|---------------2-2-2-2-----3-3-3-3-----3-3-3-3-------|
E|---------------3-3-3-3-----x-x-x-x-----x-x-x-x-------|

 Guitar 1: Clean
E|------1----------------3---------------1-------------3--1--0----|
B|--------3---3---3----3---3---3--3----1---1---1--1--1---------3--|
G|----2-----2--------0-------0------------------------------------|
D|--0--------------------------------3-------3--------------------|
A|----------------------------------------------------------------|
D|----------------------------------------------------------------|

E|--------1----------------3---------------1-------------------0--1--1--2---|
B|--(3)-----3---3---3----3---3---3--3----1---1---1--1--------1--------------|
G|------2-----2--------0-------0---------------------------0----------------|
D|-------------------------------------3-------3---------2------------------|
A|-----------------------------------------------------3--------------------|
D|--------------------------------------------------------------------------|

==========================================

Pre-Chorus

"I see my vision burn I feel my memories......"

 Guitar 3: Rymthm
E|------------------------------------------------------------------------------|
B|------------------------------------------------------------------------------|
G|-------------------------5-5-5---------5------7---10-10-10---9---9----7-7-7---|
D|--------5---5-5-5-5-5----5-5-5-----------7--------10-10-10---10--10---7-7-7---|
A|--3-3-4-5---5-5-5-5-5----3-3-3-----5h7--------5----8--8--8---7---7----5-5-5---|
D|--3-3-4-5---5-5-5-5-5---------------------------------------------------------|

Guitar 1: Lead
E|---/13-12-------------|
B|-------------15hb~~---|
G|----------14----------|
D|----------------------|
A|----------------------|
D|----------------------|

==========================================

Chorus

"Seize the day or regreting..."

 Guitar 3: Rymthm
E|----------------------------------------------------|
B|----------------------------------------------------|
G|---7-7-7-------------------5-5-5---3-3-3---5-5-5----|
D|---7-7-7---3-3-3---5-5-5---5-5-5---3-3-3---5-5-5----|
A|---5-5-5---3-3-3---5-5-5---3-3-3---1-1-1---3-3-3----|
D|-----------3-3-3---5-5-5----------------------------|

 Guitar 2: Rymthm
E|--1-1-1---1-1-1---3-3-3---3-3-3---0-0-0---0-0-0---0-0-0-0------------|
B|--3-3-3---1-1-1---3-3-3---3-3-3---3-3-3---5-5-5---6-6-6-6------------|
G|--2-2-2---2-2-2---0-0-0---0-0-0---3-3-3---5-5-5---7-7-7-7------------|
D|--0-0-0---3-3-3---0-0-0---2-2-2---3-3-3---5-5-5---7-7-7-7------------|
A|----------3-3-3---2-2-2---3-3-3---1-1-1---3-3-3---5-5-5-5------------|
E|----------0-0-0---3-3-3---x-x-x---x-x-x---x-x-x---x-x-x-x------------|


==========================================

*Repeat Verse
*Repeat Pre-Chorus
*Repeat Chorus x2

==========================================

Solo

 Guitar 1: Lead
E|--/13-12----12----------------------/13--(13)-13-13---13/15-12~~-------|
B|---------13----13----11--(11)-10-10------------------------------------|
G|------------------12---------------------------------------------------|
D|-----------------------------------------------------------------------|
A|-----------------------------------------------------------------------|
D|-----------------------------------------------------------------------|

E|--8/10--13-10-13-10--8h10---------------------------------13--10/18-17-|
B|--------------------------10-11--13/15-19-----------11-----------------|
G|-------------------------------------------/9-10-------10--------------|
D|-------------------------------------------------12--------------------|
A|-----------------------------------------------------------------------|
D|-----------------------------------------------------------------------|

E|--18-17----18/20--20b~--(20)----17--17-17-17-15-15~-(15)----15-17~-----|
B|--------18-----------------------------------------------18------------|
G|-----------------------------------------------------------------------|
D|-----------------------------------------------------------------------|
A|-----------------------------------------------------------------------|
D|-----------------------------------------------------------------------|

E|---------------------13------------------------------------------------|
B|--15--15-13-15-13-15----15\13------------------------------------------|
G|------------------------------14-12--14-12-10----------------/10-------|
D|----------------------------------------------12--7--8/10-12------12~--|
A|-----------------------------------------------------------------------|
D|-----------------------------------------------------------------------|

E|--------------10------------/17-18-17--(17)--10/17----------15--(15)---|
B|--------11-------11--10/11-------------------------18-15-18------------|
G|--10-------10----------------------------------------------------------|
D|-----12----------------------------------------------------------------|
A|-----------------------------------------------------------------------|
D|-----------------------------------------------------------------------|

E|-----12-13-10----10--------8/10-10-10--8-8-6-6/5-----13b~~~~~----------|
B|--15----------10----11--11-----------------------6---------------------|
G|-----------------------------------------------------------------------|
D|-----------------------------------------------------------------------|
A|-----------------------------------------------------------------------|
D|-----------------------------------------------------------------------|

 Guitar 2: Rymthm
E|--1-1-1-1---0-0-0-0---1-1-1-1---1-1-1-1-----|
B|--1-1-1-1---1-1-1-1---3-3-3-3---3-3-3-3-----|
G|--2-2-2-2---0-0-0-0---2-2-2-2---3-3-3-3-----|x3
D|--3-3-3-3---2-2-2-2---0-0-0-0---3-3-3-3-----|
A|--3-3-3-3---3-3-3-3-------------1-1-1-1-----|
E|--x-x-x-x---x-x-x-x-------------x-x-x-x-----|

==========================================

Bridge

"So, What if I never hold you, yeah,..."

  Guitar 3: Rymthm
e|---------------------------------------------------------------|
b|---------------------------------------------------------------|
g|----------------5--9-9--10-10--12--\7-10-10-/7--1--7-7-5-5-3---|
d|--3-3-3-3-3-3---5----------------------------------------------|
a|--3-3-3-3-3-3---3--7-7---8--8--10--\5--8--8-/5--3--5-5-3-3-1---|
d|--3-3-3-3-3-3--------------------------------------------------|

E|-----------------------------------------------------------|
B|-----------------------------------------------------------|
G|------------------5--9--10--12--7-------------------3------|
D|--3-3-3-3-3-3-3---5----------------------------------------|
A|--3-3-3-3-3-3-3---3--7---8--10--5-------------------1------|
D|--3-3-3-3-3-3-3--------------------------------------------|

 Guitar 2: Rymthm
E|--1-1-1-1---0-0-0-0---1-1-1-1---1-1-1-1-----|
B|--1-1-1-1---1-1-1-1---3-3-3-3---3-3-3-3-----|
G|--2-2-2-2---0-0-0-0---2-2-2-2---3-3-3-3-----|x2
D|--3-3-3-3---2-2-2-2---0-0-0-0---3-3-3-3-----|
A|--3-3-3-3---3-3-3-3-------------1-1-1-1-----|
E|--x-x-x-x---x-x-x-x-------------x-x-x-x-----|

==========================================

*Repeat Chorus x2

==========================================

Solo 2


 Guitar 1: Lead
     1____         1_______1____          .5                          1___
E|----------------------------------------------------------------------------|
B|-13b---(13)p10-13b---(13)b---(13)---13p10b---10h11p10----10-11--(11)b--(11)-|
G|------------------------------------------------------12--------------------|
D|----------------------------------------------------------------------------|
A|----------------------------------------------------------------------------|
D|----------------------------------------------------------------------------|


 Guitar 1:
                   .5                   .5_______
E|----------------------------------------------------|
B|-10h11-10-11-13-13b---14-15-14-15-17-17b~~~~~~(17)\-|
G|----------------------------------------------------|
D|----------------------------------------------------|
A|----------------------------------------------------|
D|----------------------------------------------------|


 Guitar 1:
        .5_____.5_____.5_____.5  .5____.5____.5___           1___         .5___
E|-------------------------------------------------------------------------------------|
B|-15p\10b--(10)b--(10)b--(10)b--------------------------------------------------------|
G|-------------------------------9b--(9)b--(9)b--(9)--9-10-10b~~(10)-10-9-9b--(9)p7~~~~|
D|-------------------------------------------------------------------------------------|
A|-------------------------------------------------------------------------------------|
D|-------------------------------------------------------------------------------------|

 Guitar 2: 
E|--3-3-3---1-1-1---1-1-1---0-0-0---|
B|--3-3-3---1-1-1---3-3-3---2-2-2---|
G|--4-4-4---2-2-2---3-3-3---2-2-2---| x2
D|--5-5-5---3-3-3---3-3-3---2-2-2---|
A|--5-5-5---3-3-3---1-1-1---0-0-0---|
E|--x-x-x---x-x-x---x-x-x---x-x-x---|

 Guitar 3:
E|--------------------------------------|
G|--------------------------------------|
B|--------------------------------------| x2
D|--------------------------------------|
A|--5-(x8)---3-(x8)---7-(x8)---8-(x8)---|
D|--5--------3--------7--------8--------|

==========================================

 Guitar 1: 
E|--10(x12)--13(x12)--12(x12)--13(x10)---|
B|---------------------------------------|
G|---------------------------------------|
D|---------------------------------------|
A|---------------------------------------|
D|---------------------------------------|



 Guitar 3:
E|--------------------------------------------------------------------------------|
G|--------------------------------------------------------------------------------|
B|--------------------------------------------------------------------------------|x6
D|--------------------------------------5--------3--------7--------8--------(8)---|
A|--5-(x8)---3-(x8)---7-(x8)---8-(x8)---5-(x8)---3-(x8)---7-(x8)---8-(x8)---(8)---|
D|--5--------3--------7--------8--------5--------3--------7--------8--------(8)---|

 Guitar 4:
E|------------------------------------------|
B|------------------------------------------|
G|--------------------2--------3------------|x2
D|--5--------3--------2-(x4)---3-(x4)-------|
A|--5-(x4)---3-(x4)---0--------1------------|
D|--3--------1------------------------------|

==========================================

 Guitar 1: Sweeping

e|-18p15----------15-18p15----------15-17p13----------13-17p13----------13---|
B|------15------15--------15------15--------15------15--------15------15-----|
G|--------15--15------------15--15------------14--14------------14--14-------|
D|----------17----------------17----------------15----------------15---------|
A|---------------------------------------------------------------------------|
D|---------------------------------------------------------------------------|

 
e|-----------------------------------------------------------------18-13-----|
B|-17p14----------14-17p14----------17-18p15----------15-18p15----------15---|
G|------14------14--------14------14--------15------15--------15----------15-|
D|--------14--14------------14--14------------15--15------------15-----------|
A|----------16----------------16----------------17---------------------------|
D|---------------------------------------------------------------------------|
 
 
e|-18p15----------15-18p15----------15-17p13----------13-17p13----------13-|
B|------15------15--------15------15--------15------15--------15------15---|
G|--------15--15------------15--15------------14--14------------14--14-----|
D|----------17----------------17----------------15----------------15-------|
A|-------------------------------------------------------------------------|
D|-------------------------------------------------------------------------|
   
 
e|-------------------------------------|
B|-17p14----------14-17p14----------14-|
G|------14------14--------14------14---|
D|--------14--14------------14--14-----|
A|----------16----------------16-------|
D|-------------------------------------|
 

 Guitar 4:
E|--------------------------------------|
B|--------------------------------------|
G|--------------------------------------|
D|--5--------3--------7--------8--------|
A|--5-(x8)---3-(x8)---7-(x8)---8-(x8)---|
D|--3--------1--------5--------6--------|

==========================================
Outro:

 Guitar 1: 
E|--10(x12)--13(x12)--12(x12)--13(x10)---|
B|---------------------------------------|
G|---------------------------------------|
D|---------------------------------------|
A|---------------------------------------|
D|---------------------------------------|


==========================================
Tap to rate this tab
# A B C D E F G H I J K L M N O P Q R S T U V W X Y Z