Song name
# A B C D E F G H I J K L M N O P Q R S T U V W X Y Z

Avenged Sevenfold - Hail To The King tab

INTRO part 1:

   GTR 1:

    ||--12-0-0-14-0-0-15-0-0-14-0-0-14-12-0-0--|
    ||-----------------------------------------|
    ||-----------------------------------------| x3
    ||-----------------------------------------|
    ||-----------------------------------------|
    ||-----------------------------------------|

     |--17----0-17----0-|-15----0-15----0-|-14-10-0-14--||
     |-----15------15---|----15------15---|-------------||
     |------------------|-----------------|-------------|| x6
     |------------------|-----------------|-------------||
     |------------------|-----------------|-------------||
     |------------------|-----------------|-------------||

   GTR 2:

    ||-----------------------|    |------------------|    ||
    ||-----------------------|    |------------------|    ||
    ||-----just-guitar-1-----| x2 |-------drums------| x2 ||
    ||-----------------------|    |------------------|    ||
    ||-----------------------|    |------------------|    ||
    ||-----------------------|    |------------------|    ||

    ||-----------------------|    |------------------|    ||
    ||-----------------------|    |------------------|    ||
    ||-----------------------| x2 |------------------| x2 ||
    ||--2-4-5----------------|    |--2-4-5--x-x------|    ||
    ||--2-4-5----------------|    |--2-4-5--x-x------|    ||
    ||--2-4-5----------------|    |--2-4-5--x-x------|    ||

    ||-----------------------|    |-----------------------||
    ||-----------------------|    |-----------------------||
    ||-----------------------| x3 |-----------------------||
    ||--2-4-5--X-X--X-X--X-X-|    |--2-4-5--x-0-----------||
    ||--2-4-5--X-X--X-X--X-X-|    |--2-4-5--x-0-----------||
    ||--2-4-5--X-X--X-X--X-X-|    |--2-4-5--x-0----5-4-0--||


INTRO part 2:

   GTR 1:

    ||----------|---------|---------|---------|    |---------|    ||
    ||--5-8-5-0-|-5-8-5-0-|-5-8-5-0-|-3-5-3-0-|    |-3-5-3-0-|    ||
    ||----------|---------|---------|---------| x3 |---------| x4 || x2
    ||----------|---------|---------|---------|    |---------|    ||
    ||----------|---------|---------|---------|    |---------|    ||
    ||----------|---------|---------|---------|    |---------|    ||

   GTR 2:

    ||--------------|-------------|-------------|-----------------||
    ||--------------|-------------|-------------|-----------------||
    ||--------------|-------------|-------------|-----------------|| x2
    ||--2---2-2-5-0-|-2---2-2-5-0-|-2---2-2-5---|--0---0----------||
    ||--2---2-2-5-0-|-2---2-2-5-0-|-2---2-2-5---|--0---0----------||
    ||--2---2-2-5-0-|-2---2-2-5-0-|-2---2-2-5---|--0---0---5-4-0--||


VERSE:

   GTR 1:

    ||----------|---------|----------|----------|
    ||--5-8-5-0-|-5-8-5-0-|-3-5-3-0--|-3-5-3-0--|
    ||----------|---------|----------|----------| x2
    ||----------|---------|----------|----------|
    ||----------|---------|----------|----------|
    ||----------|---------|----------|----------|

     |----------|---------|----------|----------|
     |--5-8-5-0-|-5-8-5-0-|-7-10-7-0-|-7-10-7-0-|
     |----------|---------|----------|----------|
     |----------|---------|----------|----------|
     |----------|---------|----------|----------|
     |----------|---------|----------|----------|

     |---------|    ||
     |-3-5-3-0-|    ||
     |---------| x4 ||
     |---------|    ||
     |---------|    ||
     |---------|    ||

   GTR 2:
            PM.....................              PM.........
    ||-----------------------------------||----------------------------||
    ||-----------------------------------||----------------------------||
    ||-----------------------------------||----------------------------|| x2
    ||--2---------------------------5-0--||--2---------------0---------||
    ||--2---------------------------5-0--||--2---------------0---------||
    ||--2---2-2-2-2-2-2-2-2-2-2-2-2-5-0--||--2---2-2-2-2-2-2-0---5-4-0-||


PRE-CHORUS:

   GTR 1:

    ||-------------|    |------------||
    ||--10-13-10-0-|    |-8-10-8-10--||
    ||-------------| x3 |------------|| x4
    ||-------------|    |------------||
    ||-------------|    |------------||
    ||-------------|    |------------||

    ||-------------|    |------------||
    ||--12-15-12-0-|    |-10-12-10-0-||
    ||-------------| x3 |------------|| x2
    ||-------------|    |------------||
    ||-------------|    |------------||
    ||-------------|    |------------||

    ||-------------||
    ||--12-15-12-0-||
    ||-------------|| x8
    ||-------------||
    ||-------------||
    ||-------------||

   GTR 2:

    ||-----------|------------|----------|------------|
    ||-----------|------------|----------|------------|
    ||-----------|------------|----------|------------|
    ||--7-----10-|-7-----10-5-|-7-----10-|-7-----10-5-|
    ||--7-----10-|-7-----10-5-|-7-----10-|-7-----10-5-|
    ||--7-----10-|-7-----10-5-|-7-----10-|-7-----10-5-|

     |-----------|------------|----------|------------||
     |-----------|------------|----------|------------||
     |-----------|------------|----------|------------||
     |--9-----12-|-9-----12-7-|-9-----12-|-9--------5-||
     |--9-----12-|-9-----12-7-|-9-----12-|-9--------5-||
     |--9-----12-|-9-----12-7-|-9-----12-|-9--------5-||


CHORUS:

   GTR 1:

    ||------------------------------------------------------||
    ||----12----10--10\12--10----12----10--10\12--10--------||
    ||--9----9-----------------9----9------------------7~---||
    ||------------------------------------------------------||
    ||------------------------------------------------------||
    ||------------------------------------------------------||

   GTR 2:

    ||------------|-------------|-------------|-------------||
    ||------------|-------------|-------------|-------------||
    ||------------|-------------|--5----------|--7----------|| x2
    ||--2---------|--0----------|--5----------|--7----------||
    ||--2---------|--0----------|--3------0-2-|--5----------||
    ||--2---------|--0----5-4-0-|-------------|-------5-4-0-||


POS-CHORUS:

   GTR 1:

    ||-----------------------------------|    |---------|    ||
    ||--5-0-0-7-0-0-8-0-0-7-0-0-7-5-0-0--|    |-3-5-3-0-|    ||
    ||-----------------------------------| x3 |---------| x4 ||
    ||-----------------------------------|    |---------|    ||
    ||-----------------------------------|    |---------|    ||
    ||-----------------------------------|    |---------|    ||

   GTR 2:

    ||-----------------------|-----------------------||
    ||-----------------------|-----------------------||
    ||-----------------------|-----------------------||
    ||--2-4-5--X-X--X-X--X-X-|--2-4-5--x-0-----------||
    ||--2-4-5--X-X--X-X--X-X-|--2-4-5--x-0-----------||
    ||--2-4-5--X-X--X-X--X-X-|--2-4-5--x-0----5-4-0--||


VERSE
PRE-CHORUS
CHORUS
POS-CHORUS


SOLOS (see my other tab)


INTRO part 1:

   GTR 1:

    ||--12-0-0-14-0-0-15-0-0-14-0-0-14-12-0-0--|
    ||-----------------------------------------|
    ||-----------------------------------------| x3
    ||-----------------------------------------|
    ||-----------------------------------------|
    ||-----------------------------------------|

     |--17----0-17----0-|-15----0-15----0-|-14-10-0-14--||
     |-----15------15---|----15------15---|-------------||
     |------------------|-----------------|-------------|| x2
     |------------------|-----------------|-------------||
     |------------------|-----------------|-------------||
     |------------------|-----------------|-------------||

    ||--12-0-0-14-0-0-15-0-0-14-0-0-14-12-0-0--|
    ||-----------------------------------------|
    ||-----------------------------------------| x3
    ||-----------------------------------------|
    ||-----------------------------------------|
    ||-----------------------------------------|

     |-14-10-0-14--|    ||
     |-------------|    ||
     |-------------| x4 ||
     |-------------|    ||
     |-------------|    ||
     |-------------|    ||


   GTR 2:

    ||--------------------------------------------------||
    ||--------------------------------------------------||
    ||--------------------------------------------------||
    ||--2-----------------------------------------------|| 
    ||--2-----------------------------------------------||
    ||--2-----------------------------------------------||

    ||-----------------------|    |---------------------||
    ||-----------------------|    |---------------------||
    ||-----------------------|    |---------------------||
    ||--2-4-5--X-X--X-X--X-X-| x3 |--2-4-5--x-0---------||
    ||--2-4-5--X-X--X-X--X-X-|    |--2-4-5--x-0---------||
    ||--2-4-5--X-X--X-X--X-X-|    |--2-4-5--x-0---------||


CHORUS x2


POS-CHORUS b:

   GTR 1:

    ||-----------------------------------|    |---------||
    ||--5-0-0-7-0-0-8-0-0-7-0-0-7-5-0-0--|    |--3~~~~--||
    ||-----------------------------------| x3 |---------||
    ||-----------------------------------|    |---------||
    ||-----------------------------------|    |---------||
    ||-----------------------------------|    |---------||

   GTR 2:

    ||-----------------------|-----------------------||
    ||-----------------------|-----------------------||
    ||-----------------------|-----------------------||
    ||--2-4-5--X-X--X-X--X-X-|--2-4-5--x-0-----------||
    ||--2-4-5--X-X--X-X--X-X-|--2-4-5--x-0-----------||
    ||--2-4-5--X-X--X-X--X-X-|--2-4-5--x-0-----------||


Hope you enjoy it!
Please vote so that I keep posting A7X tabs :)
Thanks!
Tap to rate this tab
# A B C D E F G H I J K L M N O P Q R S T U V W X Y Z