Song name
# A B C D E F G H I J K L M N O P Q R S T U V W X Y Z

Avenged Sevenfold - Not Ready To Die tab

Not Ready To Die Solo
by Avenged Sevenfold
Tuning: D A D G B E low to high

E-12/17--17--17h18--17b--16/12--12--14--15-----15--17--18--17--15--13--------|
B--------------------------------------------15----------------------15------|
G------------------------------------------15--------------------------14-15-|
D----------------------------------------------------------------------------|
A----------------------------------------------------------------------------|
D----------------------------------------------------------------------------|

E---17b--13--------------18--17--16/12--12--16--17----------------------------|
B-15-------15-------------------------------------14b--15--14--15--15v----13--|b
G------------14--14b---14-----------------------------------------------------|
D--------------------15-------------------------------------------------------|
A-----------------------------------------------------------------------------|
D-----------------------------------------------------------------------------|

E-10--12--13--10--12\ /12--14--15\ /15--17--18--17--15--17--13---------|
B-------------------------------------------------------------15----15-|
G---------------------------------------------------------------14-15--|
D----------------------------------------------------------------------|
A----------------------------------------------------------------------|
D----------------------------------------------------------------------|

E-17-18-17-13-17-13--17-18-17-13-17-13--17-18-17-15-13------------------|
B------------------------------------------------------15--13h15p13--15-|
G--------------------------------------------------------15--------15---|
D-----------------------------------------------------------------------|
A-----------------------------------------------------------------------|
D-----------------------------------------------------------------------|

E-16-12-13-16-13-12-------------------------------------------12-17-13-|
B------------------13-12-9-10-12-10-9--12p9----12-9-10-12-10-9---------|
G------------------------------------------10-9------------------------|
D----------------------------------------------------------------------|
A----------------------------------------------------------------------|
D----------------------------------------------------------------------|

E----------------------------------------------------------------------|
B-17-15-14-15-17-15-14-17-14-15--14h17p14-------14---------------------|
G------------------------------14--------14--14(18)14------------------|
D------------------------------------------14--------15-14-15-17-15-14-|
A----------------------------------------------------------------------|
D----------------------------------------------------------------------|

E----------------------------------------------------------------------|
B----------------------------------------------------------14-15-16-17-|
G----------------------------------14-15-17-15-14--14-15-17------------|
D-12-11-12-14-12-11--------14-15-17--------------17--------------------|
A------------------14-11-16--------------------------------------------|
D----------------------------------------------------------------------|

E-14-15-16-17v-|
B--------------|
G--------------|
D--------------|
A--------------|
D--------------|

Key:
v    =   vibrato
b    =   bend
\ /  =   slide the note up and then back down the neck to the same note
/    =   slide the note
h    =   hammer on
p    =   pull off
(18) =   alternate note on G string in place of 14 on B string

Notes:
Vibratos are usually two quick bends.
Bends are small bends - listen to the song to figure out what degree to bend it too.
Tap to rate this tab
# A B C D E F G H I J K L M N O P Q R S T U V W X Y Z