Song name
# A B C D E F G H I J K L M N O P Q R S T U V W X Y Z

Avenged Sevenfold - Heretic tab

------------------------------------------------------------------------------
                             Heretic - Avenged Sevenfold
------------------------------------------------------------------------------
Tabbed by:Slimcognito51
E-mail:slimcognito20@live.com
Here is a link of me playing it
http://www.youtube.com/watch?v=aAzVk9Apn1c
Tuning:Drop
b=bend
b()=hold bend and pick note
p=pull of
h=hammer on
v=vibrato
bv=bend vibrato
bt=bend tap
br=bend release
/=slide
e|-------------------------------------------13-15-17b(17-17-17)-|
B|-13b-13p10----10-13-15b(15-15-15)-13-15-17---------------------|
G|-----------12--------------------------------------------------|
D|---------------------------------------------------------------|
A|---------------------------------------------------------------|
E|---------------------------------------------------------------|

e|-15-13-12---15-12----------------------------------------------|
B|------------------14-------------------11-14-12-11-------------|
G|---------------------15-12----------12-------------12br-12b----|
D|---------------------------14-11-14----------------------------|
A|---------------------------------------------------------------|
E|---------------------------------------------------------------|

e|-------------------------------------------------------------------|
B|-13-10--------------10-13-10---------------------------------------|
G|-------12br--12bv-12---------12b-12v-12-10-9--9h10p9----10-9-------|
D|-----------------------------------------------------12------11-12-|
A|-------------------------------------------------------------------|
E|-------------------------------------------------------------------|

e|-------10-12-13-10-------------------------10-12-13-10----------------|
B|----10-------------10-------------------10-------------10-------------|
G|-10-------------------10-------------10-------------------10----------|
D|-------------------------12-------12-------------------------12-------|
A|----------------------------12-13-------------------------------12----|
E|----------------------------------------------------------------------|

e|-------------10-17-13----------------------13-16-17-13-----------------|
B|----------10----------15----------------15-------------15--------------|
G|-------10----------------14----------14-------------------14-----------|
D|----12----------------------15----15-------------------------15--------|
A|-13----------------------------17-------------------------------17-----|
E|-----------------------------------------------------------------------|

e|----------13-18-17h18p17p15-17-18v-9h10h12t18p12p10p9t17p12p9----------|
B|-------15--------------------------------------------------------------|
G|----14-----------------------------------------------------------------|
D|-15--------------------------------------------------------------------|
A|-----------------------------------------------------------------------|
E|-----------------------------------------------------------------------|

e|-t13p8p6p5t12p8p6p5t8p3p1t5p3p1p0----------------------------------|
B|----------------------------------6bt13p6bt13p6/8bt16p8bt16v-------|
G|-------------------------------------------------------------------|
D|-------------------------------------------------------------------|
A|-------------------------------------------------------------------|
E|-------------------------------------------------------------------|

e|--------------------------------------------13-16-17-13-17-13-------------|
B|-11b-11-10-11-/15-14v-15-14-15v----------15-------------------15----------|
G|--------------------------------------14-------------------------14-------|
D|-----------------------------------15-------------------------------15----|
A|--------------------------------17-------------------------------------17-|
E|--------------------------------------------------------------------------|


e|-------------------13-17-18-13-18-13--------------------------------|
B|----------------15-------------------15-----------------------------|
G|----14-------15-------------------------15----------15--------------|
D|-15-------15-------------------------------15----15-----------------|
A|-------17-------------------------------------17--------------------|
E|--------------------------------------------------------------------|

e|-------------15-17-19-17-19-15--------------------------------------|
B|----------15-------------------15-----------------------------------|
G|-------16-------------------------16---------16---------------------|
D|----17-------------------------------17----17-----------------------|
A|-17-------------------------------------17--------------------------|
E|--------------------------------------------------------------------|

e|-------------12-15-13-12-17-12----------------------------|
B|----------13-------------------14-------------------------|
G|-------12-------------------------14----------14----------|
D|----14-------------------------------14----14-------------|
A|-15-------------------------------------16----------------|
E|----------------------------------------------------------|

e|-------------13-16-17-13-17-13---------------------------------|
B|----------15-------------------15------------------------------|
G|-------14-------------------------14----------14---------------|
D|----15-------------------------------15----15------------------|
A|-17-------------------------------------17---------------------|
E|---------------------------------------------------------------|

e|-------------------13-17-18-13-18-13--------------------------------|
B|----------------15-------------------15-----------------------------|
G|----14-------15-------------------------15----------15--------------|
D|-15-------15-------------------------------15----15-----------------|
A|-------17-------------------------------------17--------------------|
E|--------------------------------------------------------------------|

e|-------------15-17-19-17-19-15--------------------------------------|
B|----------15-------------------15-----------------------------------|
G|-------16-------------------------16---------16---------------------|
D|----17-------------------------------17----17-----------------------|
A|-17-------------------------------------17--------------------------|
E|--------------------------------------------------------------------|

e|-15-12-----------------------------------------------------------------|
B|-------14-------14-----------------------------------------------------|
G|----------15-12----15-12-------12--------------------------------------|
D|-------------------------14-------14-----------------------------------|
A|----------------------------16-------16-15-14-13-16v-------------------|
E|-----------------------------------------------------------------------|
Tap to rate this tab
# A B C D E F G H I J K L M N O P Q R S T U V W X Y Z