Song name
# A B C D E F G H I J K L M N O P Q R S T U V W X Y Z

Avenged Sevenfold - I Wont See You Tonight Part 2 tab

|--------------------------------------------------------------------14b-|
|-16-13-------------------13----13-16~~~~----13-------------------13-----|
|-------14-12----12-13-14----14-----------------14-12----12-13-14--------|
|-------------16--------------------------------------16-----------------|
|------------------------------------------------------------------------|
|------------------------------------------------------------------------|

|-------------17----16b~~~-------------------------------------------------|
|-13----13-16----16--------16----------15-16-15----------------------------|
|----14-----------------------15-14-15-------------15----------17----------|
|-----------------------------------------------16----16-15-16----16-15-16-|
|--------------------------------------------------------------------------|
|--------------------------------------------------------------------------|

|--------------------------------------------17-20-18----------------------|
|--------------------------------------16-15----------20-------------------|
|-15----------17----------15-----------------------------19----------19-20-|
|----16-15-16----16-15-16----16-15-16-----------------------20-19-20-------|
|--------------------------------------------------------------------------|
|--------------------------------------------------------------------------|

|-------------------------------------------------------------------------|
|-------------------------------------------------------------------------|
|-19----------------------------------------------------------------------|
|----19-20-17----17-------------------------------------------------------|
|-------------20----20-18-17-18-17----17-18-17-20-18-17----17-------------|
|----------------------------------20-------------------20----20-19-17-15-|

|-------------------------------------------------------------------------|
|-------------------------------------------------------------------18----|
|----------------------------------------------------------19-20-19----18-|
|-------------------------------17----------17-19-20-19-17----------------|
|-------15-------------17-19-20----20-19-20-------------------------------|
|-17-19----19-17-19-20----------------------------------------------------|

|-------------------------------------------------------------------------|
|-------------------------------------------------------------------------|
|-20-19-17----------17-19-20-19-17----17----------------------------------|
|----------20-19-17----------------20----20-19-17----17----------17-19----|
|-------------------------------------------------20----20-19-20-------20-|
|-------------------------------------------------------------------------|

|----------------------------------------18-20-18----17-20-23-23----------|
|-------------------------------18-20-22----------22-------------22-23-22-|
|----------17-19-20----17-19-20-------------------------------------------|
|-17-19-20----------20----------------------------------------------------|
|-------------------------------------------------------------------------|
|-------------------------------------------------------------------------|

|-23-23-23-23-23----------23-23-23----------23-23-23-23-23----------23-17-|
|----------------22-23-22----------22-23-22----------------22-23-22-------|
|-------------------------------------------------------------------------|
|-------------------------------------------------------------------------|
|-------------------------------------------------------------------------|
|-------------------------------------------------------------------------|

|-20-18-------------------------------------------------------------------|
|-------20----------------------------------------------------------------|
|----------19----------19-20-19-------------------------------------------|
|-------------20-19-20----------19-20-17----17----------------------------|
|----------------------------------------20----20-18-17-18-17----17-18-17-|
|-------------------------------------------------------------20----------|

|-------------------------------------------------------------------------|
|-------------------------------------------------------------------------|
|-------------------------------------------------------------------17-19-|
|----------------------------------------------------------17-19-20-------|
|-20-18-17----17-------------------15-------------17-19-20----------------|
|----------20----20-19-17-15-17-19----19-17-19-20-------------------------|

|-------------------------------------------------------------------------|
|-------------------------------------------------------------------------|
|-17----------------------------17-19-17----------17-19-17----17-19-20-19-|
|----20-19-20-19-17-19-------------------20-19-20----------20-------------|
|----------------------20-19-20-------------------------------------------|
|-------------------------------------------------------------------------|

|-------------18----|
|----18----18----20-|
|-17----20----------|
|-------------------|
|-------------------|
|-------------------|

thanks to the guitar pro version from keifermatot.
Tap to rate this tab
 
# A B C D E F G H I J K L M N O P Q R S T U V W X Y Z