Song name
# A B C D E F G H I J K L M N O P Q R S T U V W X Y Z

Avenged Sevenfold - Strenght Of The World tab

Hey, I'm Matt Gallant, I tabbed this a while ago. It sounds pretty effing close to me. 
er' out. Happy Playing
Acoustic

E----1------1------------1-----1----3-3h5p3--3------------3----------3---|
B------3------3------------3-----3-------------3------------3----------3-|
G--------2------2------------2--------------------0--0---------0--0------|
D---------------------------------------------------0--0---------0--0----|
A------------------------------------------------------------------------|
D--0----------------0-0--------------------------------------------------|

the starting of the electric
E-------------------------------------------------------------------------|
B-------------------------------------------------------------------------|
G-------------------------------------------------------------------------|
D---------7--------7--------7-----------------5---------------------------|
A------5-----8--5-----8--5-----8/10--8--7--5--5---------------------------|
D---0-----------------------------------------5---------------------------|
Tap to rate this tab
 
# A B C D E F G H I J K L M N O P Q R S T U V W X Y Z