Song name
# A B C D E F G H I J K L M N O P Q R S T U V W X Y Z

Avenged Sevenfold - Missing In Action tab

This is my first tab. so it may be a little sloppy.  And if it is, forgive me, im 14.(i
my best). comment with suggestions! thanks!

|--------------10----12----|-13----------------13-15-16--(16)b17-----|
|-----------10----10----10-|-----9-------13--------------------------|
|-------10-----------------|----------13-----------------------------|
|-11-12--------------------|-------15--------------------------------|
|--------------------------|-----------------------------------------|
|--------------------------|-----------------------------------------|


|-/20-18------------------------|----------8-6-----13-----------------|
|--------18---------------------|--------------6-------13-------------|
|------------19-(19)------------|--------7-------7--------10----------|
|--------------------20-(20)-19-|-(19)S8---------------------10-12----|
|-------------------------------|-------------------------------------|
|-------------------------------|-------------------------------------|

|-------------------------20-15-------18-15-------|-18--15-20-15-------------------|
|-------------11-14-13-11-------17----------17----|--------------17-15-------------|
|-------10-12----------------------17----------17-|--------------------17-15-------|
|-10-12-------------------------------------------|--------------------------17----|
|-------------------------------------------------|--------------------------------|
|-------------------------------------------------|--------------------------------|


|-----------------9-10-12--17-(17)-(17)b18---|-(17)---9-9-10---10-12--12---12s15----|
|--------------10----------------------------|--------------------------------------|
|----9---10-12-------------------------------|--------------------------------------|
|-11-----------------------------------------|--------------------------------------|
|--------------------------------------------|--------------------------------------|
|--------------------------------------------|--------------------------------------|


|-17-13-13-12--------12-8-8--------------------|
|-------------13------------10-8------------10-|
|-----------------14-------------9-------10----|
|----------------------------------11-12-------|
|----------------------------------------------|
|----------------------------------------------|


|--------------------13-10----------10-13--17-13-------13-17-20-17-------17-|
|-13--11-10-------10-------11----11-----------------15----------------18----|
|--------------10-------------12-----------------14----------------19-------|
|-----------12--------------------------------------------------------------|
|---------------------------------------------------------------------------|
|---------------------------------------------------------------------------|

|---------------------------------------------------------------------------|
|---------------------------------------------------------------------------|
|---------------------------------------------------------------------------|
|---------------------------------------------------------------------------|
|-----------------------------/8-------(8)--------7--------5--------7-------|
|---------------------------------------------------------------------------|


|-----------------15-18-15-15----15-18-15-15----15-|
|--------------18-------------18-------------18----|
|-19---(19)\---------------------------------------|
|--------------------------------------------------|
|--------------------------------------------------|
|--------------------------------------------------|

|----10-13-10-10----10-13-10-10----10-------5-----5-8-6-5-------|
|-13-------------13-------------13--------6-----6---------8-6-5-|
|--------------------------------------7------7-----------------|
|---------------------------------------------------------------|
|---------------------------------------------------------------|
|---------------------------------------------------------------|

|---------------------------------------------------------------|
|---------------------------------------------------------------|
|---------------------------------------------------------------|
|-----------------------------3-------(3)-----------------------|
|--3--------5--------1------------------------1-----3-----5-----|
|---------------------------------------------------------------|

|-10b12-(10)------------8-12-8-12-|-/15--10-12-10-/20-18-17-/19-17-16-/18-16-15----|
|-------------------5-8-----------|------------------------------------------------|
|-----------------7---------------|------------------------------------------------|
|---------------8-----------------|------------------------------------------------|
|---------------------------------|------------------------------------------------|
|---------------------------------|------------------------------------------------|

/17-15-14-/17-15-14-/16-14-13-|
------------------------------|
------------------------------|
------------------------------|
------------------------------|
------------------------------|
Tap to rate this tab
 
# A B C D E F G H I J K L M N O P Q R S T U V W X Y Z