Song name
# A B C D E F G H I J K L M N O P Q R S T U V W X Y Z

Avenged Sevenfold - Critical Acclaim tab

this is my first tab i did so it will not be the best, so hope you like it

|--------------------------15-12------------------------------|
|-/14-12-------13--------13------13----13/15---13-11----------|
|-------16-12b---12-14-15-----------12---------------14-10b---|
|-------------------------------------------------------------|
|-------------------------------------------------------------|
|-------------------------------------------------------------|


|---------------------------------------------------13-12-13-18b--15p14-17b|
|-----------/15-13b16b13b-15-16-15--13-15b-14--16-17-----------------------|
|-15---16-17---------------------------------------------------------------|
|---15---------------------------------------------------------------------|
|--------------------------------------------------------------------------|
|--------------------------------------------------------------------------|
Tap to rate this tab
# A B C D E F G H I J K L M N O P Q R S T U V W X Y Z