Guitaretab - guitar tabs
Song name
# A B C D E F G H I J K L M N O P Q R S T U V W X Y Z

Avenged Sevenfold - Almost Easy tab

Tabbed by:Manny C.

Note: 2 guitars in the band
      both guitars in :Drop D flat

   Lets Get Started!!

gtr 1-Synyster Gates
gtr 2-Zacky V.


 (main riff 1)               INTRO.
  gtr 2                         x2
e-----------------------------------|
b-----------------------------------|
g-----------------------------------|
d-7777777-555555-55555555-3333-555--|
a-5555555-333333-55555555-1111-333--|
D----------------55555555-----------|


  gtr 1
e--/13-12---------/13-12-----/17b(18)---/13-12-------------/13-12/18-17-18\|
b--------13\10/15b------13\10-----------------13\10/15b(16)----------------|
g--------------------------------------------------------------------------|
d--------------------------------------------------------------------------|
a--------------------------------------------------------------------------|
D--------------------------------------------------------------------------|


                        Verse Intro
 (Main Riff 2)
gtr 1 and 2
e-------------------------------------------------------|
b-------------------------------------------------------|
g-------------------------------------------------------|
d-7\---------8\6---6\3---6/7\---------------------------|
a-5\---------6\4---4\1---4/5\-0-0-0-0-0-----------------|
D---0-0-0-0-0---0-0---0-0-----0-0-0-0-00007h8p70008h10p8|
    = = = = =   = =   = =     = = = = ====     ===
e----------------------------------------------------|
b----------------------------------------------------|
g----------------------------------------------------|
d-7\---------8\6---6\3---6/7\------------------------|
a-5\---------6\4---4\1---4/5\-0-0-0-0-0--------------|
D---0-0-0-0-0---0-0---0-0-----0-0-0-0-0-000000005h6p5|
    = = = = =   = =   = =     = = = = = ========


               rhy. fig 1      VERSE
gtr 1 and 2
e----------------------------------------------------------|
b----------------------------------------------------------|
g----------------------------------------------------------|
d-0-------------0-------------0-------------0--------------| do this 2 times
a-0-0-0-0-0-0-0-0-0-0-0-0-0-0-0-0-0-0-0-0-0-0--------------|
D-0-0-0-0-0-0-0-0-0-0-0-0-0-0-0-0-0-0-0-0-0-0-000000005h6p5|
    = = = = = =   = = = = = =   = = = = = =   ========


e--------------------------------------------------------|
b--------------------------------------------------------|
g--------------------------------------------------------| do this once
d-0-------------0-------------0--------------------------|
a-0-------------0-------------0--------------------------|
D-0-000-000-000-0-000-000-000-0-000-000-000-000000005h6p5|
    === === ===   === === ===   === === === ========

gtr 1 and 2
e----------------------------------------------------------|
b----------------------------------------------------------|
g----------------------------------------------------------|
d-0-------------0-------------0-------------0--------------| do this 1 more
a-0-0-0-0-0-0-0-0-0-0-0-0-0-0-0-0-0-0-0-0-0-0--------------|       time
D-0-0-0-0-0-0-0-0-0-0-0-0-0-0-0-0-0-0-0-0-0-0-000000005h6p5|
    = = = = = =   = = = = = =   = = = = = =   ========

(rhy. fig 4)
                  PRE-CHORUS
gtr 1 and 2

e----------------------------------------|
b----------------------------------------|
g----------------------------------------|
d-7--2-xx-5----3-x-5---------------------|
a-5--3-xx-3----1-x-1-10--8--8--8--7-7-\--|
D--0--------00-------8--10-10-10-11-11\--|
   =        ==

                  Chorus
gtr 1 and 2
e---------------------------------------------------------------------|
b---------------------------------------------------------------------|
g---------------------------------------------------------------------|
d---------------------------5-5-5-5-5-3-3-3-3-3-3-3-3-0-0-0-0-0-0-0-0-|
a-3-3-3-3-3-3-3-3-3-3-3-3-3-3-3-3-3-3-3-3-3-3-3-3-3-3-0-0-0-0-0-0-0-0-|
D-3-3-3-3-3-3-3-3-3-3-3-3-3-3-3-3-3-3-3-3-3-3-3-3-3-3-0-0-0-0-0-0-0-0-|

PLAY VERSE AND PRE-CHORUS ONE MORE TIME

[ Tab from: http://www.guitaretab.com/a/avenged-sevenfold/96412.html ]
                           Chorus
gtr 1 and 2
e---------------------------------------------------------------------|
b---------------------------------------------------------------------|
g---------------------------------------------------------------------|
d---------------------------5-5-5-5-5-3-3-3-3-3-3-3-3-0-0-0-0-0-0-0-0-|
a-3-3-3-3-3-3-3-3-3-3-3-3-3-3-3-3-3-3-3-3-3-3-3-3-3-3-0-0-0-0-0-0-0-0-|
D-3-3-3-3-3-3-3-3-3-3-3-3-3-3-3-3-3-3-3-3-3-3-3-3-3-3-0-0-0-0-0-0-0-0-|


e----------------------------------------------------------|
b----------------------------------------------------------|
g----------------------------------------------------------|
d--------------5-5-5-5-5-3-3-3-3-3-3-3-3-0-0-0-0-0-0-0-0-0-|
a-/5-5-3-3-3-3-3-3-3-3-3-3-3-3-3-3-3-3-3-0-0-0-0-0-0-0-0-0-|
D-/5-5-3-3-3-3-3-3-3-3-3-3-3-3-3-3-3-3-3-0-0-0-0-0-0-0-0-0-|


play main riff 2 then solo it out


  SOLO   :]


e------------------------------------13-16-17b-/-22------|
b-13b14~r13-10---------------------15--------------------|
g-------------12b13(13)----------14----------------------|
d-----------------------------15-------------------------|
a---------------------------17---------------------------|
D--------------------------------------------------------|

e-22-17------------------------17-18-17---------------------|
b------18------------------------------18----18b19(19)~~----|
g--------19------------------------------19-----------------|
d----------19-18-19b20(20)~~---------------19---------------|
a-----------------------------------------------------------|
D-----------------------------------------------------------|

e--------------------------|
b-17-18-17-13----15b16\----|
g------------14------------|
d--------------15----------|
a--------------------------|
D--------------------------|

e-17-13-----------------------------------10-12/18----------------------|
b------17-13\10-13----------------------10------------------------------|
g-----------------10b11~~-------------10--------------------------------|
d-----------------------------------12----------------------------------|
a---------------------------------13------------------------------------|
D-----------------------------------------------------------------------|

e-------------------------------------------------------|
b-----------------------------------15/22(22)(22)~~\----|
g-5/7--\----------------------0-7/14--------------------|
d-------5/7---7/14\12-12/19~~\--------------------------|
a-------------------------------------------------------|
D-------------------------------------------------------|

e-----------------------------------------------------------|
b--10b(11)r10------------10b(11))r10------------------------|
g-7----------7----~~~\--------------------7~~~\-------------|
d---------------------5/7----------------------5/7-9/14-12--|
a-----------------------------------------------------------|
D-----------------------------------------------------------|

e-----------------------------------------------|
b-------------------15/23----22~~---------------|
g------------0-7/14--------------19~\-----------|
d-12/19-22(~\-----------------------------------|
a-----------------------------------------------|
D-----------------------------------------------|

e-181715------1815----2017-------------------------------------|
b-------181715----1715----20172018-17\15-----------------------|
g---------------------------------------171514-15p14-----------|
d---------------------------------------------------1715p14\12-|
a--------------------------------------------------------------|
D--------------------------------------------------------------|


                 BRIDGE
e--------------------------------------------------------------------------------------------|
b--------------------------------------------------------------------------------------------|
g--------------------------------------------------------------------------------------------|
d-----------------------5-5-5-5-5-5-2-2-2-2-2-3-3-3-3-3-------------5-5-5-5-2-2-2-2-3-3-3-5--|
a-0-0-0-0-0-3-3-3-3-3-3-3-3-3-3-3-3-0-0-0-0-0-1-1-1-1-1-3-3-3-3-3-3-3-3-3-3-0-0-0-0-1-1-1-3--|
D-0-0-0-0-0-3-3-3-3-3-3---------------------------------3-3-3-3-3-3--------------------------|

play pre-chorus and chorus and main riff to then your done and so am I

Legend
 \-slide(towards 3rd fret)
 /-slide(towards 21st fret)
 b-bend
 =-palm mute
 x-mute string
Related for Almost Easy tab
Almost Easy chords by Avenged Sevenfold