Song name
# A B C D E F G H I J K L M N O P Q R S T U V W X Y Z

Aventura - Por Un Segundo tab

Great song by Aventura.I know that aventura plays this with a capo on the 3rd fret but i 
have a capo and this is the closest that sounds good without a capo.
 Standard Tuning: eBGDAE


 e---------------------------------------------|
 B---------------------------------------------|
 G--------------------------------5-h-7p-5-----|
 D------------5--7-8-7-8-7-8-7-8---------------|
 A--8-s-5---6----------------------------------|
 E---------------------------------------------|


 e----------------------------------------------|
 B----------------------------------------------|
 G--------------------------8-7--3-h-5-p-3------|
 D----7-8-10---7-8-10---7-8---------------------|
 A--8--------8--------8-------------------------|
 E----------------------------------------------|
Tap to rate this tab
 
# A B C D E F G H I J K L M N O P Q R S T U V W X Y Z