Song name
# A B C D E F G H I J K L M N O P Q R S T U V W X Y Z

Aventura - Dile Al Amor tab

Here is another song by aventura the last one i tabbed out was "Por un segundo" 
and is not exact but sounds close when you play along with it.This song "Dile al 
amor" is not as accurate either but sounds good enough.So here it is.
 Standard Tuning:e-B-G-D-A-E

  e-----------------------------------------------------------|
  B-----------------------------------------------------------|
  G-1-1-1-3-3/4-1-1/6-1-1/3--3/1------------------------------|   X 2
  D-------------------------------6/4-------------------------|
  A-----------------------------------------------------------|
  E-----------------------------------------------------------|
           ------------   Let that last part ring a little bit
                       ]
                      \/ 
  e-7-6-7-6-7-6-7-6-7-6------7/14-----------------------------|
  B-----------------------7-----------------------------------|
  G-----------------------------------------------------------|   X 2
  D-----------------------------------------------------------|
  A-----------------------------------------------------------|
  E-----------------------------------------------------------|
Tap to rate this tab
# A B C D E F G H I J K L M N O P Q R S T U V W X Y Z