Aventura - El Malo tab

Made by Zigga

This is my first tab I made, so don't be to harsh on it. I hope it is as far as correct.

E|-------6h9---8p6---|-------6h8-6-11p8---|-----------------|-------6-----8p6---|
B|-----6-----9-----9-|-----9------------6-|-----7-7h9-7-7p6-|-----6-----9-----6-|
G|---6---------------|---8----------------|---6-------------|---6-----8---------|
D|-8-----------------|-6------------------|-8---------------|-8-----------------|
A|-------------------|--------------------|-----------------|-------------------|
E|-------------------|--------------------|-----------------|-------------------|

E|-------6h9---8p6---|-------6h8-6-11p8---|-----------------|-------6-----6---6h8h6-|
B|-----6-----9-----9-|-----9------------6-|-----7-7h9-7-7p6-|-----6-----9-----------|
G|---6---------------|---8----------------|---6-------------|---6-----8-------------|
D|-8-----------------|-6------------------|-8---------------|-8---------------------|
A|-------------------|--------------------|-----------------|-----------------------|
E|-------------------|--------------------|-----------------|-----------------------|


E|---------9---------9-|------------6h9p6------------6h7p6-|---------9---------9-|
B|-------9---------9---|-------9----------------9----------|-------9---------9---|
G|----10--------10-----|----10---------------10------------|----10--------10-----|
D|-11--------11--------|-11------11-------11------11-------|-11--------11--------|
A|---------------------|-----------------------------------|---------------------|
E|---------------------|-----------------------------------|---------------------|


E|-------6h9-6h9p6-------6h8-6h8p6-|---------9---------9-|-------6-------------6-------|
B|-----6---------------6-----------|-------9---------9---|-----6---6---6-----6---6---6-|
G|---6---------------6-------------|----10--------10-----|---6-------6-----6-------6---|
D|-8---------------8---------------|-11--------11--------|-8-------------8-------------|
A|---------------------------------|---------------------|-----------------------------|
E|---------------------------------|---------------------|-----------------------------|


E|--7-8--8--8-9---9--11--11--13--14--13--|--| (sometimes uses 1 string)
B|--8/9--9--9/11--11/13--13--14--16--14--|--|
G|---------------------------------------|--|
D|---------------------------------------|--|
A|---------------------------------------|--|
E|---------------------------------------|--|

E|-------6h9-6h9p6-------6h8-6h8p6-|---------9---------9-|
B|-----6---------------6-----------|-------9---------9---|
G|---6---------------6-------------|----10--------10-----|
D|-8---------------8---------------|-11--------11--------|
A|---------------------------------|---------------------|
E|---------------------------------|---------------------|  x2

E|-------6h8-8p6---6-------6h9-9p6---6---|
B|-----6---------6-------6---------6-----|
G|---6-----------------6-----------------|
D|-8-----------------8-------------------|
A|---------------------------------------|
E|---------------------------------------|

E|--7-8--8--8/9---9---9--11--9---8-13--|
B|--8/9--9--9-11--11--11/13--11--9/14--|(sometimes uses 1 string)
G|-------------------------------------|
D|-------------------------------------|
A|-------------------------------------|
E|-------------------------------------|

E|-------6h8-8p6---6-------6h9-9p6---6-----6-6h8-8p6---6-----6/13~-|
B|-----6---------6-------6---------6-----9-----------9-----9-------|
G|---6-----------------6---------------8-----------------8---------|
D|-8-----------------8---------------------------------------------|
A|-----------------------------------------------------------------|
E|-----------------------------------------------------------------|


SOLO

E|-----------------------------------------------|----------------------------------------------|
B|-----------------------------------------------|----------------------------------------------|
G|-----------------------------------------------|----------------------------------------------|
D|-8-11-11-10-8-11-11-10-8-11-11-10-8-11-11-10-8-|-15-11-11-13-10-10-11-10-8-8-11-11-10-8-13-13-|
A|-----------------------------------------------|----------------------------------------------|
E|-----------------------------------------------|----------------------------------------------|

E|----------------------------------------------------------------------------18\-|
B|--------------------------------------------------------------------------------|
G|------------15-15-15-15-15-15---------------------------------------------------|
D|-11-11-10-8--------------------15-11-11-13-10-10-11-10-8-8-11-11-10-8-13-13-----|
A|--------------------------------------------------------------------------------|
E|--------------------------------------------------------------------------------|


MAIN


E|-------6h9---8p6---|-------6h8-6-11p8---|-----------------|-------6-----8p6---|
B|-----6-----9-----9-|-----9------------6-|-----7-7h9-7-7p6-|-----6-----9-----6-|
G|---6---------------|---8----------------|---6-------------|---6-----8---------|
D|-8-----------------|-6------------------|-8---------------|-8-----------------|
A|-------------------|--------------------|-----------------|-------------------|
E|-------------------|--------------------|-----------------|-------------------|

E|-------6h9---8p6---|-------6h8-6-11p8---|-----------------|-------6-----6---6h8h6-|
B|-----6-----9-----9-|-----9------------6-|-----7-7h9-7-7p6-|-----6-----9-----------|
G|---6---------------|---8----------------|---6-------------|---6-----8-------------|
D|-8-----------------|-6------------------|-8---------------|-8---------------------|
A|-------------------|--------------------|-----------------|-----------------------|
E|-------------------|--------------------|-----------------|-----------------------|

E|---------9---------9-|------------6h9p6------------6h7p6-|---------9---------9-|
B|-------9---------9---|-------9----------------9----------|-------9---------9---|
G|----10--------10-----|----10---------------10------------|----10--------10-----|
D|-11--------11--------|-11------11-------11------11-------|-11--------11--------|
A|---------------------|-----------------------------------|---------------------|
E|---------------------|-----------------------------------|---------------------|


E|-------6h9-6h9p6-------6h8-6h8p6-|---------9---------9-|
B|-----6---------------6-----------|-------9---------9---|
G|---6---------------6-------------|----10--------10-----|
D|-8---------------8---------------|-11--------11--------|
A|---------------------------------|---------------------|
E|---------------------------------|---------------------|

E|-----------6----------------------------------6-----|
B|--------6-------------------------------------------|
G|-----6-------------------------------------6--------|
D|--8-----------8--10--11--10--8--10--11--8-----------|
A|----------------------------------------------------|
E|----------------------------------------------------|

E|--7-8--8--8-9---9--11--11--13--14--13--|--|
B|--8/9--9--9/11--11/13--13--14--16--14--|--|(sometimes uses 1 string)
G|---------------------------------------|--|
D|---------------------------------------|--|
A|---------------------------------------|--|
E|---------------------------------------|--|

E|-------6h9-6h9p6-------6h8-6h8p6-|---------9---------9-|
B|-----6---------------6-----------|-------9---------9---|
G|---6---------------6-------------|----10--------10-----|
D|-8---------------8---------------|-11--------11--------|
A|---------------------------------|---------------------|
E|---------------------------------|---------------------|  x2

E|-------6h8-8p6---6-------6h9-9p6---6---|
B|-----6---------6-------6---------6-----|
G|---6-----------------6-----------------|
D|-8-----------------8-------------------|
A|---------------------------------------|
E|---------------------------------------|

E|--7-8--8--8/9---9---9--11--9---8-13--|
B|--8/9--9--9-11--11--11/13--11--9/14--|(sometimes uses 1 string)
G|-------------------------------------|
D|-------------------------------------|
A|-------------------------------------|
E|-------------------------------------|

E|-------6h8-8p6---6-------6h8-8p6---6-------6h8-8p6---6-----6-13-|
B|-----6---------6-------6---------6-------9---------9------------|
G|---6-----------------6-----------------6-----------------6------|
D|-8-----------------8-----------------8-----------------8--------|
A|----------------------------------------------------------------|
E|----------------------------------------------------------------|

2ND SOLO

E|-14-13-11-6-11-13-14-13-11-6-11-13-14-13-11-6-11-13-14-13-11-6-11-13-14-13-11-6-|
B|--------------------------------------------------------------------------------|
G|--------------------------------------------------------------------------------|
D|--------------------------------------------------------------------------------|
A|--------------------------------------------------------------------------------|
E|--------------------------------------------------------------------------------|

E|-16-14-13-6-11-6-16-14-13-6-11-6-16-14-13-6-11-6-16-14-6-18-|
B|------------------------------------------------------------|
G|------------------------------------------------------------|
D|------------------------------------------------------------|
A|------------------------------------------------------------|
E|------------------------------------------------------------|

E|-14-13-11-6-11-13-14-13-11-6-11-13-14-13-11-6-11-13-14-13-11-6-11-13-14-13-11-6--| Fade out
B|---------------------------------------------------------------------------------|
G|---------------------------------------------------------------------------------|
D|---------------------------------------------------------------------------------|
A|---------------------------------------------------------------------------------|
E|---------------------------------------------------------------------------------|
Tap to rate this tab
 
# A B C D E F G H I J K L M N O P Q R S T U V W X Y Z