Song name
# A B C D E F G H I J K L M N O P Q R S T U V W X Y Z

Aventura - Mi Corazoncito tab

This starts at 1:18

I play this with the capo on the 4th fret

e-----------9--------------------------------9-----------------|
B-4-5-7-9-9-------4-5-7-9-9-7------4-5-7-9-9-------4-5-7-9-9-7-|
G--------------------------------------------------------------|
D--------------------------------------------------------------|
A--------------------------------------------------------------|
E--------------------------------------------------------------|

e-7h9-7-5-5h7-5-4-4h5-4----------------------------------------|
B-----------------------7-7h9-7-5-4h5-5p4-4h5-5p4-4h5-5p4------|
G--------------------------------------------------------------|
D--------------------------------------------------------------|
A--------------------------------------------------------------|
E--------------------------------------------------------------|

e-7h9-7-5-5h7-5-4-4h5-4----------------------------------------|
B-----------------------7-7h9-7-5-4h5-5p4-4h5-5p4-4h5-5p4------|
G--------------------------------------------------------------|
D--------------------------------------------------------------|
A--------------------------------------------------------------|
E--------------------------------------------------------------|

e-12-11-12-11-12-11-12-11-12-11-12----12--14--15--16-----------|
B----------------------------------12--------------------------|
G--------------------------------------------------------------|
D--------------------------------------------------------------|
A--------------------------------------------------------------|
E--------------------------------------------------------------|

e-12-11-12-11-12-11-12-11-12-11-12----12--17--19--21-----------|
B----------------------------------12--------------------------|
G--------------------------------------------------------------|
D--------------------------------------------------------------|
A--------------------------------------------------------------|
E--------------------------------------------------------------|

e-12-11-12-11-12-11-12-11-12-11-12----12--14--15--16-----------|
B----------------------------------12--------------------------|
G--------------------------------------------------------------|
D--------------------------------------------------------------|
A--------------------------------------------------------------|
E--------------------------------------------------------------|

e-12-11-12-11-12-11-12-11-12-11-12----12--17--19--21-----------|
B----------------------------------12--------------------------|
G--------------------------------------------------------------|
D--------------------------------------------------------------|
A--------------------------------------------------------------|
E--------------------------------------------------------------|
Tap to rate this tab
 
# A B C D E F G H I J K L M N O P Q R S T U V W X Y Z