Song name
# A B C D E F G H I J K L M N O P Q R S T U V W X Y Z

Aventura - La Boda tab

-------------------------------------------------------------------------------
                             La Boda - Aventura
-------------------------------------------------------------------------------
Tabbed by:Alberto
E-mail:aa2.010898@gmail.com


CAPO ON 3RD FRET


e|---0---2h3p2--0-0h2p0--0--3h5p3-2-2h3p2--0-0h2p0--0--2h3p2--0--0h2p0--0---|
B|---0----------------------------------------------0-----------------------|
G|--------------------------------------------------------------------------|
D|--------------------------------------------------------------------------|
A|--------------------------------------------------------------------------|
E|--------------------------------------------------------------------------|

                           V   V               V    V
e|--3h5p3--2-2h3p2 0-------0---0--0------0-----0----0--0---------0----------|
B|-------------------0-----0---0-----------0---0----0---------------0-------|
G|-------------------------1---1-------1-------1----1----------1------------|
D|-------------------------2---2-----2---------2----2-------2---------------|
A|--------------------------------------------------------------------------|
E|--------------------------------------------------------------------------|

                                   V     V                  V    V
e|-------0----0---------0----------0-----0--0-------0-------0----0--0-------|
B|-----0------------0---0----------0-----0-------------0----0----0----------|
G|---1----------1-------1----------1-----1-------1----------1----1----------|
D|-2--------------------2----------2-----2-----2------------2----2----------|
A|--------------------------------------------------------------------------|
E|--------------------------------------------------------------------------|

e|------0----------0--0----0--2p0-0-0-4p0-0-0-2p0-0-------------------------|
B|--------0------0------------------------------------2-2-2-2-4-5---5--5/7--|
G|----1--------1------------------------------------------------------------|
D|--2--------2--------------------------------------------------------------|
A|--------------------------------------------------------------------------|
E|--------------------------------------------------------------------------|

e|--------------------------------------------------------------------------|
B|-5---2-2-2-2-4-5---5--5/7--5-------2---4p2---------2--2p0-0--2p0-0---2p0--|
G|--------------------------------2-----------2--2--------------------------|
D|--------------------------------------------------------------------------|
A|--------------------------------------------------------------------------|
E|--------------------------------------------------------------------------|

e|--------------------------------------------------------------------------|
B|-0-2p0--2h4-----2-2-2-2-4-5---5/7--5---2-2-2-2-4-5---5/7--5---------2-----|
G|-----------------------------------------------------------------2--------|
D|--------------------------------------------------------------------------|
A|--------------------------------------------------------------------------|
E|--------------------------------------------------------------------------|

e|--------------------------------------------------------------------------|
B|----4p2----------2--2p0-0--2p0-0--2p0-0---2p0-0--2h4----------------------|
G|---------2--2-------------------------------------------------------------|
D|--------------------------------------------------------------------------|
A|--------------------------------------------------------------------------|
E|--------------------------------------------------------------------------|


************************************

| /   slide up
| h   hammer-on
| p   pull-off
V     rake strings
************************************


It's pretty easy... I'll put up the rest of the song when I have more time.
 Feel free to email any questions or comments to aa2.010898@gmail.com,
and good luck!
Tap to rate this tab
 
# A B C D E F G H I J K L M N O P Q R S T U V W X Y Z