Guitaretab - guitar tabs
Song name
# A B C D E F G H I J K L M N O P Q R S T U V W X Y Z

Aventura - Cuando Volveras tab

Song: Cuando Volveras (When Will You Come Back?) [Intro]
Track: 1
Artist: Aventura
Album: Unplugged

Tuning: Standard (EADGBe)
Distortion Level: None (Acoustic)

INTRO
e|---13-13-11-11--|------11h13p11--|--13-13-11-11--|------11h13p11--|
B|----------------|----13----------|---------------|----13----------|
G|---------------|--12------------|---------------|--13------------|
D|---------------|----------------|---------------|----------------|
A|----------------|----------------|---------------|----------------|
E|----------------|----------------|---------------|----------------|
[ Tab from: http://www.guitaretab.com/a/aventura/81165.html ]
e|--15-15-13-13--|------13h15p13--|--18-18-18-15-20--|--11---|
B|---------------|----15----------|------------------|--13---|
G|---------------|--15------------|------------------|--12--|
D|---------------|----------------|------------------|------|
A|---------------|----------------|------------------|-------|
E|---------------|----------------|------------------|-------|

======================
Tablature Legend
======================
| \  Slide up
| /  Slide down
| PM Palm mute
| h  Hammer-on
| p  Pull-off
| ~  Vibrato
| +  Harmonic
| x  Dead note
======================

Tabbed by: Roberto Aleman
E-mail: Roberto0331@gmail.com
Related for Cuando Volveras tab