Average White Band - Cut The Cake tab

Cut the Cake
Average White Band

I never knew of this song's existence until several months ago I joined a local seven
R & B/ funk/ jazz outfit. I was given several cd's worth of songs to learn in a fairly
amount of time. I was able to pick out the majority of them fairly easy but this one 
me nightmares and after countless failed attempts I checked to see if I could find any tabs
help me out. Needless to say i found none, so after much time i figured this out, it may 
be 100% but I dare you to get closer than this! Hope this helps.


 Intro/ main riff

|--13h14----------------5-5--|-13h14--------------10--10---|
|--13-----15--10--------7-7--|-13-----15--10------10--10---|
|o--------14--10h11-----5-5--|--------14--10h11---11--11--o|
|o----------------------7-7--|--------------------10--10--o|
|--------------------5-------|-----------------------------|
|----------------------------|-----------------------------|

|--10--------12--------------|
|--11--------13--------------| Break after intro these same chords are
|o-10--------12-------------o| also used in the chorus.(gimme gimme....)
|o-12--------14-------------o|
|----------------------------|
|----------------------------|


the one other change in the song goes like this

|--11h12----------------8--8---|
|--11-----13---8--------8--8---|
|o--------12---8h9------9--9--o|
|o----------------------8--8--o|
|-----------------------10-10--|
|--------------------8---------|


these funky main riffs are a little tricky at first but once you get them down they
too hard. I hope you have as much fun with this one as I do.
Tap to rate this tab
 
# A B C D E F G H I J K L M N O P Q R S T U V W X Y Z