Avery - Love Me Or Let Me Go tab

-------------------------------------------------------------------------------
			Love Me or Let Me Go - Avery
-------------------------------------------------------------------------------

I decided to tab this song because no one had tabbed it out yet. 
There is more than one guitar in this song, but I've basically took all of them 
and made them into one. 
The song's pretty simple to play and shouldn't be any trouble at all.
Enjoy, and please rate and comment! (:

Tuning: Standard

Intro
e|------------------------------------------------------------|
B|------------------------------------------------------------|
G|--------------------------------------------(x2)------------|
D|-77777777---------------------------------------------------|
A|-55555555-77777777-22222222-55555555------------------------|
E|----------55555555-00000000-33333333------------------------|
   ........ ........ ........ ........

Verse 1
e|------------------------------------------------------------|
B|------------------------------------------------------------|
G|--------------------------------------------(x4)------------|
D|-77777777---------------------------------------------------|
A|-55555555-77777777-22222222-55555555------------------------|
E|----------55555555-00000000-33333333------------------------|
   ........ ........ ........ ........

e|----------------------------------------------------------------|
B|----------------------------------------------------------------|
G|----------------------------------------------------------------|
D|---------------5------------------------------------------------|
A|-22222222-5555-5------------------------------------------------|
E|-00000000-3333-3------------------------------------------------|
   ........ ....

Chorus
e|-----------------------------|
B|-----------------------------|
G|----------------------(x4)---|
D|-4444-5555-77777777----------|
A|-4444-5555-77777777----------|
E|-2222-3333-55555555----------|

e|---------------------------------------------------------------------|
B|-------------------------------------15--15--15--15------------------|
G|---12--12--12--12--12--12--12--12--14--14--14--14--------------------|
D|-12--12--10--10--12--12--12--12-----------------------7\-------------|
A|------------------------------------------------------7\-------------|
E|------------------------------------------------------5\-------------|

Post-chorus
e|-----------------------------------------------|
B|-----------------------------------------------|
G|----7-----------------------(x2)---------------|
D|-77-7-----7-----2-----5------------------------|
A|-55-5--77-7--22-2--55-5------------------------|
E|-------55-5--00-0--33-3------------------------|
   ..    ..    ..    ..

Verse 2
e|------------------------------------------------------------|
B|------------------------------------------------------------|
G|--------------------------------------------(x2)------------|
D|-77777777---------------------------------------------------|
A|-55555555-77777777-22222222-55555555------------------------|
E|----------55555555-00000000-33333333------------------------|
   ........ ........ ........ ........


e|------------------|---------------------------------|
B|------------------|---------------------------------|
G|-7-7-7-77---(x4)--|---------------------------------|
D|-x-x-x-xx---------|----------------5----------------|
A|-5-5-5-55---------|--22222222-5555-5----------------|
E|------------------|--00000000-3333-3----------------|
                       ........ ....

Chorus
e|-----------------------------|
B|-----------------------------|
G|----------------------(x4)---|
D|-4444-5555-77777777----------|
A|-4444-5555-77777777----------|
E|-2222-3333-55555555----------|

e|---------------------------------------------------------------------------|
B|-------------------------------------15--15--15--15------------------------|
G|---12--12--12--12--12--12--12--12--14--14--14--14--------------------------|
D|-12--12--10--10--12--12--12--12-----------------------77777777-------------|
A|------------------------------------------------------77777777-------------|
E|------------------------------------------------------55555555-------------|

Bridge
e|-------------------------------------------------------------------------|
B|-------------------------------------------------------------------------|
G|-9/11-111111-77777777----------4444-6666-99999999-77777777---------------|
D|-x/x--x-x-x--xxxxxxxx-77777777-xxxx-xxxx-xxxxxxxx-xxxxxxxx-777777777\----|
A|-7/9--9-9-9--55555555-xxxxxxxx-2222-4444-77777777-55555555-xxxxxxxxx\----|
E|----------------------55555555-----------------------------555555555\----|

e|------------------------------------------------------------|
B|------------------------------------------------------------|
G|------------------------------------------------------------|
D|-77777777---------------------------------------------------|
A|-55555555-77777777-22222222-55555555------------------------|
E|----------55555555-00000000-33333333------------------------|
   ........ ........ ........ ........

e|------------------------------------------------------------|
B|------------------------------------------------------------|
G|------------------------------------------------------------|
D|-77777777------------------------5--------------------------|
A|-55555555-77777777-22222222-5555-5--------------------------|
E|----------55555555-00000000-3333-3--------------------------|
   ........ ........ ........ ....

Chorus
e|-----------------------------|
B|-----------------------------|
G|----------------------(x4)---|
D|-4444-5555-77777777----------|
A|-4444-5555-77777777----------|
E|-2222-3333-55555555----------|

e|---------------------------------------------------------------------|
B|-------------------------------------15--15--15--15------------------|
G|---12--12--12--12--12--12--12--12--14--14--14--14--------------------|
D|-12--12--10--10--12--12--12--12-----------------------7\-------------|
A|------------------------------------------------------7\-------------|
E|------------------------------------------------------5\-------------|


**END**

Remember to look out for her upcoming album out on Universal Motown soon!

Avery's sites:
http://www.facebook.com/Averyofficial
http://www.twitter.com/Averyofficial
http://www.averyofficial.com
Tap to rate this tab
 
# A B C D E F G H I J K L M N O P Q R S T U V W X Y Z