Song name
# A B C D E F G H I J K L M N O P Q R S T U V W X Y Z

Avey Tare And Kria Brekkan - Opis Helpus tab

Ok, this is my first tab, so bear with me. This song is really simple, if you use
the right tuning. I used
F#-A#-D#-f#-a#-c#

The chords are just D#m D#m7 G# G#7 F# F#7 G# G#7

Here's the tab for the piano part at the beginning...


       D#m          D#m7          G#           G#7
c#-------2------2------0------0------7------7------5------5----|
a#-----0------0------0------0------5------5------5------5------|
f#----0------0------0------0------6------6------6------6-------|
D#--0------0------0------0------5------5------5------5---------|
A#-------------------------------------------------------------|
F#-------------------------------------------------------------|


       F#             F#7             G#         G#7
c#-------5------5------3------3------7------7------5------5----|
a#-----3------3------3------3------5------5------5------5------|
f#----4------4------4------4------6------6------6------6-------|
D#--3------3------3------3------5------5------5------5---------|
A#-------------------------------------------------------------|
F#-------------------------------------------------------------|


That's the entire song. When the guitar comes in he just plays these chords.
Tap to rate this tab
 
# A B C D E F G H I J K L M N O P Q R S T U V W X Y Z