Song name
# A B C D E F G H I J K L M N O P Q R S T U V W X Y Z

Avey Tare - Heather In The Hospital tab

-------------------------------------------------------------------------------
                             HEATHER IN THE HOSPITAL - Avey Tare
-------------------------------------------------------------------------------
Tabbed by: Armando Ortiz
E-mail:ajo16_2@hotmail.com

Tuning: Standard

This song is divided in three parts. It has a weird swing to it but if you play it 
along it'll sound right.


the little intro

e|--------|
B|----6---|
G|------5-|
D|-6------|
A|--------|
E|--------|

the first part where he sings all the "It brings me down...":

e|-------------------------------|
B|--------------------------6----|
G|-----5------5------5--------5--|
D|-------5------5------5-6-------|
A|--6------6------6--------------|
E|-------------------------------|


e|----------------------------------------------------------------------------------------|
B|----------------------------------------------------------------------------------------|
G|----------------------------------------------------------------------------------------|
D|---8------8------8------8------5------5------5------5------8------8------8-------8------|
A|-----8------8------8------8------5------5------5------5------8------8------8-------8----|
E|-9-----9------9------9------6------6------6------6------9------9------9-------9---------|and
repeat...


the second part where he begins saying "The windy day...": (makes my hairs stand up)

e|-------------------------------|
B|-------------------------------|
G|----3------3------3------3-----|
D|------4------4------4------4---|
A|-6------6------6------6--------|
E|-------------------------------|


e|-------------------------------------------------------------------------------------|
B|-------------------------------------------------------------------------------------|
G|----3------3------3------3-----------------------------------------------------------|
D|------3------3------3------3----6------6------6------6------8------8------8------8---|
A|-4------4------4------4-----------6------6------6------6------8------8------8------8-|
E|-----------------------------7------7------7------7------9------9------9------9------|and
repeat...


for the third and last part it follows from the last part:



e|---------------------------------|
B|---------------------------------|
G|---------------------------------|
D|----8------8------8--------------|
A|------8------8------8-------8--9-|
E|-9------9------9------9--11------|

and leaves off with:



e|------------------------------------------------------------------------|
B|-11--------11--------11---------11-----------9-------9-------9-------9--|
G|-----11--------11--------11--------11----------8-------8-------8-------8|
D|--------11--------11--------11--------11-10------10------10------10-----|
A|------------------------------------------------------------------------|
E|------------------------------------------------------------------------|

e|-----------------------------------------|
B|-----------------------------------------|
G|-10--------10--------10--------10--------|
D|-----11--------11--------11--------11----|
A|--------11--------11--------11--------11-|
E|-----------------------------------------|

e|-----------------------------------------|
B|-11--------11--------11--------11--------|
G|-----11--------11--------11--------11----|
D|--------11--------11--------11--------11-|
A|-----------------------------------------|
E|-----------------------------------------|


e|------------------------------------------------------------------------|
B|-11--------11--------11--------11------------9-------9-------9-------9--|
G|-----11--------11--------11--------11----------8-------8-------8-------8|
D|--------11--------11--------11--------11-10------10------10------10-----|
A|------------------------------------------------------------------------|
E|------------------------------------------------------------------------|

e|-----------------------------------------|
B|-----------------------------------------|
G|-10--------10--------10--------10--------|
D|-----11--------11--------11--------11----|
A|--------11--------11--------11--------11-|
E|-----------------------------------------|


e|-----------------------------------------|
B|-----------------------------------------|
G|-10--------10--------10--------10--------|
D|-----11--------11--------11--------11----|
A|--------11--------11--------11--------11-|
E|-----------------------------------------| ...and fade out.


************************************

| /   slide up
| \   slide down
| h   hammer-on
| p   pull-off
| ~   vibrato
| +   harmonic
| x   Mute note
| b   Bend
| pb  Pre-bend
| br  Bend release
| pbr Pre-bend release
| brb Bend release bend

************************************
Tap to rate this tab
 
# A B C D E F G H I J K L M N O P Q R S T U V W X Y Z