Song name
# A B C D E F G H I J K L M N O P Q R S T U V W X Y Z

Avi Buffalo - Truth Sets In tab

Artist: Avi Buffalo
Song: Truth Sets In
Site: http://avibuffalomusic.com/

email me if you have any suggestions
tsos.josue@gmail.com

Intro Chords:
G D

Background guitar plays harmonics

------------------------------7*---------|
-12*-------5*----12*-------7*----7*------|
----12*------5*-----12*------------------|
-------12*-------------12*---------------|
-----------------------------------------|
-----------------------------------------|

other guitar at 0:25

--12--10--8---10-------15--14--12--8---10-------|
--10--10--10--10--x2---15--15--15--10--10---x2--|
------------------------------------------------|
------------------------------------------------|
------------------------------------------------|
------------------------------------------------|

0:32
                   x2  | 1st Ending  |   2nd Ending
-----------------------|-------------|------------------------|
-----------------------|-------------|---------10-10-10-10-8--|
--6---7-6-7-6-4---9-6--|-9-6-4-6-4---|-6-7-9------------------|
-----------------------|-------------|------------------------|
-----------------------|-------------|------------------------|
-----------------------|-------------|------------------------|

Verse Chords:
Strum Pattern: xx xxx xxx xxx
                                                      x3
--10------|--5------|--5-5--5-5-5--5-5-5--5-5-4-3-3-|-3-3-3------------|
--12------|--5------|--7-7--7-7-7--7-7-7--7-7-6-5-5-|-5-5-5------------|
--12------|--5------|--7-7--7-7-7--7-7-7--7-7-6-5-5-|-5-5-5------------|
--12--x11-|--7--x11-|--7-7--7-7-7--7-7-7--7-7-6-5-5-|-5-5-5------------|
--10------|--7------|--5-5--5-5-5--5-5-5--5-5-4-3-3-|-3-3-3------------|
--10------|--5------|--5-5--5-5-5--5-5-5--5-5-4-3-3-|-3-3-3------------|
Tap to rate this tab
 
# A B C D E F G H I J K L M N O P Q R S T U V W X Y Z