Song name
# A B C D E F G H I J K L M N O P Q R S T U V W X Y Z

Aviator - Front Line tab

Author/Artist: Aviator
Title: Frontline
Album: Aviator
http://www.heavyharmonies.com/cgi-bin/glamcd.cgi?BandNum=579&CDName=Aviator

Transcribed by: Beanboy
Tuning: Normal


VERSE
<-PM-------------------------------------------------------------------|
-----------------------------------------------------------------------|
-----------------------------------------------------------------------|
-7---------------8--10---7--8----8--10---7--8--------------------------|
-7---------------8--10---7--8----8--10---7--8--------------------------|
-5-four bars-----6--8----5--6----6--8----5--6--------------------------| (x2)
-----------------------------------------------------------------------|


CHORUS
----------------------------------------------------------------------|
---------4------------------------------------------------------------|
---------3---3--------------------------------------------------------|
-x-x-x---1---3---3----------------------------------------------------|
-x-x-x-------1---3----------------------------------------------------| (x4)
-x-x-x-----------1----------------------------------------------------|


Song Structure
--------------
Intro (half verse)
verse
chorus
verse
chorus
solo (over verse)
chorus
chorus (twice)
Tap to rate this tab
 
# A B C D E F G H I J K L M N O P Q R S T U V W X Y Z