Song name
# A B C D E F G H I J K L M N O P Q R S T U V W X Y Z

Avicci - Levels Acoustic tab

-------------------------------------------------------------------------------
                             LEVELS - avicci
-------------------------------------------------------------------------------
Tabbed by:SarahBelfast
Email: sarah_masterson@hotmail.co.uk


Okay looked alot for this tab couldnt find it anywhere so heres what ive came up 
with hope its okay might be a little tricky but hopefully it works

Tuning: Standard with CAPO on 4th all tab relavent to this capo 

           Part 1      Part 2 (Am Shape)   Part 3 (C)     Part 4(G and F)
       |-------------| |---------------|   |-----------| |-----------|
e|------5-----3----0------------------------------------------------------|
B|----------------------3------1-----1------1---1--1--1---0--0--1--1------|
G|----------------------2------2-----2------0---0--0--0---0--0--0--0------|
D|-----------------------------------------------------------------3------|
A|----------------------0------0-----0------3---3--3--3-------------------|
E|--------------------------------------------------------3--3--3---------|

       Part 5
    |------------|
e|-------------------------|
B|-------------------------|
G|---2--2--0---0-----------|
D|---0--0--0---------------|
A|-------------------------|
E|---3--3--3---1-----------|



Structure :
Part 1
Part 2
Part 3
Part 4

Part 1
Part 2
Part 3
Part 5






hope it wasnt too confusing and if you have any queries please comment thank you very much. Rate!
Tap to rate this tab
# A B C D E F G H I J K L M N O P Q R S T U V W X Y Z