Song name
# A B C D E F G H I J K L M N O P Q R S T U V W X Y Z

Avicii - Levels tab

-------------------------9p7---|
-7-5-5--5-5-5-5-4-4-5-5-----9--|
-------------------------------|
-------------------------------|
-4------7----------------------|
----------------7---5----------|

-------------------------9p7---|
-7-5-5--5-5-5-5-------------9--|
----------------6-6-4-4--------|
-------------------------------|
-4------7----------------------|
----------------7---5----------|

saw a youtube video of a guy playing this and decided to tab it. heres the video:
http://www.youtube.com/watch?v=X88pnwFsDOY

http://www.avicii.com/
Tap to rate this tab
# A B C D E F G H I J K L M N O P Q R S T U V W X Y Z