Song name
# A B C D E F G H I J K L M N O P Q R S T U V W X Y Z

Avicii - Penguin tab

This is my first tab, so... yeah. Just a tip, barring the 12th fret on G, B and E makes 
the song a lot easier.



E---------------12-15------|
B-----12---15--------------|
G---12--12---12------------|      X14
D--------------------------|
A--------------------------|
E--------------------------|



E---------------12-15------------------------------|
B-----12---15--------------12----------------------|
G---12--12---12---------12---12-14-12-11-12--------|         (Repeat as necessary)
D--------------------------------------------------|
A--------------------------------------------------|
E--------------------------------------------------|
Tap to rate this tab
# A B C D E F G H I J K L M N O P Q R S T U V W X Y Z