Song name
# A B C D E F G H I J K L M N O P Q R S T U V W X Y Z

Avicii - Levels tab

Standard Tuning   Capo 4th Fret

(/)= slide up




E|--3/5-3-0---------------------------|
B|----------3--1-1--1-1-1-1--0-0-1--1-|
G|----------2--2-2--0-0-0-0--0-0-0--2-|
D|------------------------------------|
A|----------0-------3-----------------|
E|---------------------------3------1-|

E|--3/5-3-0---------------------------|
B|----------3--1-1--1-1-1-1-----------|
G|----------2--2-2--0-0-0-0--2-2-0--0-|
D|---------------------------0-0-0--0-|
A|----------0-------3-----------------|
E|---------------------------3------1-|



Im pretty sure this is 100% correct.
Tap to rate this tab
# A B C D E F G H I J K L M N O P Q R S T U V W X Y Z